PrimaNota.ru - самый крупный в мире бесплатный архив песенных текстов, аккордов, табулатур и нот


Cryhavoc - Repent Whore - текст песни, таба, видео

Регистрация Запомнить меня
Войти через:  Facebook Google Twitter Vk Yandex Mail.ru

Cryhavoc - Repent Whore - текст песни, таба, видео

Печатать
Просмотров: 137
Repent Whore by Cryhavoc 
Off the 1998 Split "Children Of Bodom" with Children of Bodom and Wizzard

Tabbed by Alex Chapman, Alex_chapman58@hotmail.com roq questions or comments.

Never seen a tab for it, so i though i'd do it myself.

Tuning: D G C F A D
Gtr.I & II - Acoustic
Gtr. III & IV - Heavily Distorted



Gtr.I
|------------------------------------------------------------------|
|------------------------------------------------------------------|
|-4-6--7-----7--------6------6------4-------4--------4--6----------|
|---------9----9---9-----7-----7------5---5---5---5----------------|
|----------9-----9---------7-----7------5-------5------------------| x2
|-3-5--7--------------5-------------3----------------3--5----------|


|------------------------------------------------------------------|
|--------7----------------5----------------------------------------|
|-7----------------6---------------4------4-------4------4--6------|
|----9------9---9-----7-----7---7-----5-----5---5---5--------------|
|------9------9---------7-----7---------5-----5-------5------------|
|-7----------------5---------------3---------------------3--5------|


|------------------------------------------------------------------|
|------------------------------------------------------------------|
|-7-----7--------6------6--------4------4-------4------------------|
|---9-----9---9-----7-----7---7-----5-----5---5---5---5------------|
|-----9-----9---------7-----7---------5-----5-------5--------------|
|-7--------------5---------------3---------------------------------|


|-10----------------------------------10-------------------------------|
|-------------10-10---------5---------------------10-10---------5------|
|----------10----------------------------------10----------------------|
|-------12--------------7-----7---7---------12--------------7-----7---7|
|----12---------------7---7-----7--------12---------------7---7-----7--|
|-10-----------------5----------------10----------------5--------------|

Gtr.II
|------------------------------------------------------------------|
|------------------------------------------------------------------|
|-<7>---------------------------------<7>--------------------------|
|----------<7>------<7>------------------------<7>-----<7>---------|
|------------------------------------------------------------------|
|------------------------------------------------------------------|

Gtr.I
|-8-----------------------------------------------------------------|
|-----------8-8---------3-------------------------------------------|
|---------9------------------------------6---------------6----------|
|------10-----------5-----5---5------7-----7---7-----7-----7---7----|
|---10------------5---5-----5------7---7-----7-----7---7-----7------|
|-8-------------3----------------5---------------5------------------|

Gtr.II
|------------------------------------------------------------------|
|------------------------------------------------------------------|
|<9>-----------<9>-----<9><8>---<8>--------------------------------|
|------------------------------------------------------------------|
|------------------------------------------------------------------|
|------------------------------------------------------------------|

Gtr.I
|-10----------------------------------10-------------------------------|
|-------------10-10---------5---------------------10-10---------5------|
|----------10----------------------------------10----------------------|
|-------12--------------7-----7---7---------12--------------7-----7---7|
|----12---------------7---7-----7--------12---------------7---7-----7--|
|-10-----------------5----------------10----------------5--------------|

Gtr.II
|------------------------------------------------------------------|
|------------------------------------------------------------------|
|-<7>---------------------------------<7>--------------------------|
|----------<7>------<7>------------------------<7>-----<7>---------|
|------------------------------------------------------------------|
|------------------------------------------------------------------|

Gtr.I
|-8-----------------------------------------------------------------|
|-----------8-8---------3-------------------------------------------|
|---------9------------------------------6---------------6----------|
|------10-----------5-----5---5------7-----7---7-----7-----7---7----|
|---10------------5---5-----5------7---7-----7-----7---7-----7------|
|-8-------------3----------------5---------------5------------------|

Gtr.II
|------------------------------------------------------------------|
|------------------------------------------------------------------|
|<9>-----------<9>-----<9><8>---<8>--------------------------------|
|------------------------------------------------------------------|
|------------------------------------------------------------------|
|------------------------------------------------------------------|

Gtr.III
|-------------------------------------------------------------------|
|-------------------------------------------------------------------|
|-10----9----7---10----9----7---10----9----10---12---10---9h10p9-7-9|
|----00---00---0----00---00---0----00---00----0----0----0-----------|
|-------------------------------------------------------------------|
|-------------------------------------------------------------------|
     ..   ..   .    ..   ..   .    ..   ..    .    .    .
Gtr.IV
|-------------------------------------------------------------------|
|-------------------------------------------------------------------|
|-7-----7----7---7-----7----7---7-----7----7----7----7----7------7--|
|-7-----7----7---7-----7----7---7-----7----7----7----7----7------7--|
|-5-55--5-55-5-5-5--55-5-55-5-5-5--55-5-55-5--5-5--5-5--5-5--5---5-5|
|-------------------------------------------------------------------|
    ..    ..   .    ..   ..   .    ..   ..    .    .    .    .     .

Gtr.III
|-------------------------------------------------------------------|
|-------------------------------------------------------------------|
|-------------------------------------------------------------------|
|-10----9----7---10----9----7---10----9----10---12---10---9h10p9-7-9|
|----00---00---0----00---00---0----00---00----0----0----0-----------|
|-------------------------------------------------------------------|
     ..   ..   .    ..   ..   .    ..   ..    .    .    .

Gtr.IV
|-------------------------------------------------------------------|
|-------------------------------------------------------------------|
|-------------------------------------------------------------------|
|-7-----7----7---7-----7----7---7-----7----7----7----7----7------7--|
|-7-----7----7---7-----7----7---7-----7----7----7----7----7------7--|
|-5-55--5-55-5-5-5--55-5-55-5-5-5--55-5-55-5--5-5--5-5--5-5--5---5-5|
    ..    ..   .    ..   ..   .    ..   ..    .    .    .    .     .

Gtr.III
|------------------------------------------------------------------|
|------------------------------------------------------------------|
|-----7-9-7------5-7-5---------------------------------------------|
|-10----------9----------7--7-5-----7-5----------------------------|
|--------------------------------7---------------------------------|
|------------------------------------------------------------------|

Gtr.IV
|------------------------------------------------------------------|
|------------------------------------------------------------------|
|------------------------------------------------------------------|
|-10----------9----------7-------7---------------------------------|
|-10----------10---------7-------7---------------------------------|
|-8-----------7----------5-------5---------------------------------|

Gtr.III
|------------------------------------------------------------------|
|------------------------------------------------------------------|
|-----7-9-7------5-7-5---------------------------------------------|
|-10----------9----------7--------9-10-----------------------------|
|------------------------------------------------------------------|
|------------------------------------------------------------------|

Gtr.IV
|------------------------------------------------------------------|
|------------------------------------------------------------------|
|------------------------------------------------------------------|
|-10----------9----------7--------7--------------------------------|
|-10----------10---------7--------7--------------------------------|
|-8-----------7----------5--------5--------------------------------|

Gtr.III
|-------------------------------------------------------------------|
|-------------------------------------------------------------------|
|-10----9----7---10----9----7---10----9----10---12---10---9h10p9-7-9|
|----00---00---0----00---00---0----00---00----0----0----0-----------|
|-------------------------------------------------------------------|
|-------------------------------------------------------------------|
     ..   ..   .    ..   ..   .    ..   ..    .    .    .
Gtr.IV
|-------------------------------------------------------------------|
|-------------------------------------------------------------------|
|-7-----7----7---7-----7----7---7-----7----7----7----7----7------7--|
|-7-----7----7---7-----7----7---7-----7----7----7----7----7------7--|
|-5-55--5-55-5-5-5--55-5-55-5-5-5--55-5-55-5--5-5--5-5--5-5--5---5-5|
|-------------------------------------------------------------------|
    ..    ..   .    ..   ..   .    ..   ..    .    .    .    .     .

Gtr.III
|-------------------------------------------------------------------|
|-------------------------------------------------------------------|
|-------------------------------------------------------------------|
|-10----9----7---10----9----7---10----9----10---12---10---9h10p9-7-9|
|----00---00---0----00---00---0----00---00----0----0----0-----------|
|-------------------------------------------------------------------|
     ..   ..   .    ..   ..   .    ..   ..    .    .    .

Gtr.IV
|-------------------------------------------------------------------|
|-------------------------------------------------------------------|
|-------------------------------------------------------------------|
|-7-----7----7---7-----7----7---7-----7----7----7----7----7------7--|
|-7-----7----7---7-----7----7---7-----7----7----7----7----7------7--|
|-5-55--5-55-5-5-5--55-5-55-5-5-5--55-5-55-5--5-5--5-5--5-5--5---5-5|
    ..    ..   .    ..   ..   .    ..   ..    .    .    .    .     .

Gtr.III
|------------------------------------------------------------------|
|------------------------------------------------------------------|
|-----7-9-7------5-7-5---------------------------------------------|
|-10----------9----------7--7-5-----7-5----------------------------|
|--------------------------------7---------------------------------|
|------------------------------------------------------------------|

Gtr.IV
|------------------------------------------------------------------|
|------------------------------------------------------------------|
|------------------------------------------------------------------|
|-10----------9----------7-------7---------------------------------|
|-10----------10---------7-------7---------------------------------|
|-8-----------7----------5-------5---------------------------------|

Gtr.III
|------------------------------------------------------------------|
|------------------------------------------------------------------|
|-----7-9-7------5-7-5---------------------------------------------|
|-10----------9----------7--------9-10-----------------------------|
|------------------------------------------------------------------|
|------------------------------------------------------------------|

Gtr.IV
|------------------------------------------------------------------|
|------------------------------------------------------------------|
|------------------------------------------------------------------|
|-10----------9----------7--------7--------------------------------|
|-10----------10---------7--------7--------------------------------|
|-8-----------7----------5--------5--------------------------------|

[Chorus]

Gtrs.III & IV
|------------------------------------------------------------------|
|------------------------------------------------------------------|
|-7-7-7-7-7-7-7-7-----------------7-7-7-7-9-7-7-7------------------|
|-7-7-7-7-7-7-7-7-7-7-7-7-7-7-7-7-7-7-7-7-7-7-7-7-7-7-7-7-7-7-7-7--|
|-5-5-5-5-5-5-5-5-7-7-7-7-7-7-7-7-5-5-5-5-5-5-5-5-7-7-7-7-7-7-7-7--|
|-----------------5-5-5-5-5-5-5-5-----------------5-5-5-5-5-5-5-5--|


|------------------------------------------------------------------|
|------------------------------------------------------------------|
|-5-5-5-5-5-5-5-5--------------------------------------------------|
|-5-5-5-5-5-5-5-5-5-5-5-5-5-5-5-5-7-7-7-7-7-7-7-7-7-7-7-7-7-7-7-7--|
|-3-3-3-3-3-3-3-3-5-5-5-5-5-5-5-5-7-7-7-7-7-7-7-7-7-7-7-7-7-7-7-7--|
|-----------------3-3-3-3-3-3-3-3-5-5-5-5-5-5-5-5-5-5-5-5-5-5-5-5--|


|------------------------------------------------------------------|
|------------------------------------------------------------------|
|-7-7-7-7-7-7-7-7-----------------7-7-7-7-9-7-7-7------------------|
|-7-7-7-7-7-7-7-7-7-7-7-7-7-7-7-7-7-7-7-7-7-7-7-7-7-7-7-7-7-7-7-7--|
|-5-5-5-5-5-5-5-5-7-7-7-7-7-7-7-7-5-5-5-5-5-5-5-5-7-7-7-7-7-7-7-7--|
|-----------------5-5-5-5-5-5-5-5-----------------5-5-5-5-5-5-5-5--|


|------------------------------------------------------------------|
|------------------------------------------------------------------|
|-5-5-5-5-5-5-5-5--------------------------------------------------|
|-5-5-5-5-5-5-5-5-5-5-5-5-5-5-5-5-7-7-7-7-7-7-7-7-7-7-7-7-7-7-7-7--|
|-3-3-3-3-3-3-3-3-5-5-5-5-5-5-5-5-7-7-7-7-7-7-7-7-7-7-7-7-7-7-7-7--|
|-----------------3-3-3-3-3-3-3-3-5-5-5-5-5-5-5-5-5-5-5-5-5-5-5-5--|

[Bridge]

Gtr.III
|------------------------------------------------------------------|
|-11---------------------------------------------------------------|
|----------------------------------12------------------------------|
|--------9--11---11^-9-------------------9--11--11^-9--------------|
|------------------------------------------------------------------|
|------------------------------------------------------------------|

Gtr.IV
|------------------------------------------------------------------|
|------------------------------------------------------------------|
|------------------------------------------------------------------|
|-9--------------------------------5-------------------------------|
|-9--9-9-9-9-9-9-9-9-9-9-9-9-9-9-9-5-5-5-5-5-5-5-5-5-5-5-5-5-5-5---|
|-7--7-7-7-7-7-7-7-7-7-7-7-7-7-7-7-3-3-3-3-3-3-3-3-3-3-3-3-3-3-3---|

Gtr.II
|------------------------------------------------------------------|
|------------------------------------------------------------------|
|------------------------------------------------------------------|
|--------9--11---------------------12-11-12-14-12--14--------------|
|-9----------------------------------------------------------------|
|------------------------------------------------------------------|

Gtr.IV
|------------------------------------------------------------------|
|------------------------------------------------------------------|
|------------------------------------------------------------------|
|-4--------------------------------5-------------------------------|
|-4--4-4-4-4-4-4-4-4-4-4-4-4-4-4-4-5-555555-7-7777777--------------|
|-2--2-2-2-2-2-2-2-2-2-2-2-2-2-2-2-3-333333-5-5555555--------------|

Gtr.III
|------------------------------------------------------------------|
|-11---------------------------------------------------------------|
|----------------------------------12------------------------------|
|--------9--11---11^-9-------------------9--11--11^-9--------------|
|------------------------------------------------------------------|
|------------------------------------------------------------------|

Gtr.IV
|------------------------------------------------------------------|
|------------------------------------------------------------------|
|------------------------------------------------------------------|
|-9--------------------------------5-------------------------------|
|-9--9-9-9-9-9-9-9-9-9-9-9-9-9-9-9-5-5-5-5-5-5-5-5-5-5-5-5-5-5-5---|
|-7--7-7-7-7-7-7-7-7-7-7-7-7-7-7-7-3-3-3-3-3-3-3-3-3-3-3-3-3-3-3---|

Gtr. III
|------------------------------------------------------------------|
|------------------------------------------------------------------|
|------------------------------------------------------------------|
|--------9--11~--------9--11--12--11--12--9~-7~--------------------|
|-9----------------------------------------------------------------|
|------------------------------------------------------------------|

Gtr.IV
|------------------------------------------------------------------|
|------------------------------------------------------------------|
|------------------------------------------------------------------|
|-4--------------------------------5-------------------------------|
|-4--4-4-4-4-4-4-4-4-4-4-4-4-4-4-4-5-555555-7-7777777--------------|
|-2--2-2-2-2-2-2-2-2-2-2-2-2-2-2-2-3-333333-5-5555555--------------|

[Bridge End]  The Timing is a little off, i just marked the power chord change 
exactly underneath the note it switches at,  that's why.

Gtr.I
|-10----------------------------------10-------------------------------|
|-------------10-10---------5---------------------10-10---------5------|
|----------10----------------------------------10----------------------|
|-------12--------------7-----7---7---------12--------------7-----7---7|
|----12---------------7---7-----7--------12---------------7---7-----7--|
|-10-----------------5----------------10----------------5--------------|

Gtr.II
|------------------------------------------------------------------|
|------------------------------------------------------------------|
|-<7>---------------------------------<7>--------------------------|
|----------<7>------<7>------------------------<7>-----<7>---------|
|------------------------------------------------------------------|
|------------------------------------------------------------------|

Gtr.I
|-8-----------------------------------------------------------------|
|-----------8-8---------3-------------------------------------------|
|---------9------------------------------6---------------6----------|
|------10-----------5-----5---5------7-----7---7-----7-----7---7----|
|---10------------5---5-----5------7---7-----7-----7---7-----7------|
|-8-------------3----------------5---------------5------------------|

Gtr.II
|------------------------------------------------------------------|
|------------------------------------------------------------------|
|<9>-----------<9>-----<9><8>---<8>--------------------------------|
|------------------------------------------------------------------|
|------------------------------------------------------------------|
|------------------------------------------------------------------|

Gtr.I
|-10----------------------------------10-------------------------------|
|-------------10-10---------5---------------------10-10---------5------|
|----------10----------------------------------10----------------------|
|-------12--------------7-----7---7---------12--------------7-----7---7|
|----12---------------7---7-----7--------12---------------7---7-----7--|
|-10-----------------5----------------10----------------5--------------|

Gtr.II
|------------------------------------------------------------------|
|------------------------------------------------------------------|
|-<7>---------------------------------<7>--------------------------|
|----------<7>------<7>------------------------<7>-----<7>---------|
|------------------------------------------------------------------|
|------------------------------------------------------------------|

Gtr.I
|-8----------------------------------------------------------------|
|------------8-8---3-------3---------------------------------------|
|----------9-------------------------------------------------------|
|-------10-------------5-----5---5---------------------------------|
|----10--------------5---5-----5-----------------------------------|
|-8----------------3-----------------------------------------------|

Gtr.II
|------------------------------------------------------------------|
|------------------------------------------------------------------|
|<9>--------------<9>-----<9><8>-----------------------------------|
|------------------------------------------------------------------|
|------------------------------------------------------------------|
|------------------------------------------------------------------|

Gtrs.III & IV
|------------------------------------------------------------------|
|------------------------------------------------------------------|
|------------------------------------------------------------------|
|-7----7----7--7-7-7--7-7-7-7--------------------------------------|
|-7----7----7--7-7-7--7-7-7-7--------------------------------------|
|-5--5-5--5-5--5-5-5--5-5-5-5--------------------------------------|

[Chorus]

Gtrs.III & IV
|------------------------------------------------------------------|
|------------------------------------------------------------------|
|-7-7-7-7-7-7-7-7-----------------7-7-7-7-9-7-7-7------------------|
|-7-7-7-7-7-7-7-7-7-7-7-7-7-7-7-7-7-7-7-7-7-7-7-7-7-7-7-7-7-7-7-7--|
|-5-5-5-5-5-5-5-5-7-7-7-7-7-7-7-7-5-5-5-5-5-5-5-5-7-7-7-7-7-7-7-7--|
|-----------------5-5-5-5-5-5-5-5-----------------5-5-5-5-5-5-5-5--|


|------------------------------------------------------------------|
|------------------------------------------------------------------|
|-5-5-5-5-5-5-5-5--------------------------------------------------|
|-5-5-5-5-5-5-5-5-5-5-5-5-5-5-5-5-7-7-7-7-7-7-7-7-7-7-7-7-7-7-7-7--|
|-3-3-3-3-3-3-3-3-5-5-5-5-5-5-5-5-7-7-7-7-7-7-7-7-7-7-7-7-7-7-7-7--|
|-----------------3-3-3-3-3-3-3-3-5-5-5-5-5-5-5-5-5-5-5-5-5-5-5-5--|


|------------------------------------------------------------------|
|------------------------------------------------------------------|
|-7-7-7-7-7-7-7-7-----------------7-7-7-7-9-7-7-7------------------|
|-7-7-7-7-7-7-7-7-7-7-7-7-7-7-7-7-7-7-7-7-7-7-7-7-7-7-7-7-7-7-7-7--|
|-5-5-5-5-5-5-5-5-7-7-7-7-7-7-7-7-5-5-5-5-5-5-5-5-7-7-7-7-7-7-7-7--|
|-----------------5-5-5-5-5-5-5-5-----------------5-5-5-5-5-5-5-5--|


|------------------------------------------------------------------|
|------------------------------------------------------------------|
|-5-5-5-5-5-5-5-5--------------------------------------------------|
|-5-5-5-5-5-5-5-5-5-5-5-5-5-5-5-5-7-7-7-7-7-7-7-7-7-7-7-7-7-7-7-7--|
|-3-3-3-3-3-3-3-3-5-5-5-5-5-5-5-5-7-7-7-7-7-7-7-7-7-7-7-7-7-7-7-7--|
|-----------------3-3-3-3-3-3-3-3-5-5-5-5-5-5-5-5-5-5-5-5-5-5-5-5--|

[Solo]

Gtr.III
|--------------------------------------------------------------------------|
|--------------------------------------------------------------------------|
|--10-7--10-7--10-7---10-0-12---0-12---0-12---0-9-5-----9------------------|
|0-----0-----0------7---------9------9------0--------7--7-7-9-9--9---9-----|
|-----------------------------------------------------7------7--7-7-7-7-10-|
|--------------------------------------------------------------------------|
                   ________|              ___________|   _______|            
Gtr. IV           |                       |              |                                
|--------------------------------------------------------------------------|
|--------------------------------------------------------------------------|
|--------------------------------------------------------------------------|
|--------------------------------------------------------------------------|
|-7-7-7-7-7-7-7-712-12-12-12-12-12-12-122-2-2-2-2-2-2-29-9-9-9-9-9-99------|
|-5-5-5-5-5-5-5-510-10-10-10-10-10-10-100-0-0-0-0-0-0-07-7-7-7-7-7-77------|
|--------------------------------------------------------------------------|
The timing on this rythm is off, hard to line up w/o going over 80 characters.
so i used those lines to show where the rythm changes.

Gtr.III
|------------------------------------------------------------------------|
|------------------------------------------------------------------------|
|--------------------12---0-12---0---------------------------------------|
|---10-----10------9----9------9---9-------------------------------------|
|-8----8-8----10-8-------------------------------------------------------|
|-----------------------------------------0-0-0-0-0-0-0-0-0-0-0-0-0-0-0-0|

Gtr.IV
|-------------------------------------------------------------------------|
|-------------------------------------------------------------------------|
|-------------------------------------------------------------------------|
|-101010101010101012-12-12-12-12-12-12-12-2-2-2-2-2-2-2-2-2-2-2-2-2-2-2-2-|
|-8-8-8-8-8-8-8-8-10-10-10-10-10-10-10-10-0-0-0-0-0-0-0-0-0-0-0-0-0-0-0-0-|
|-------------------------------------------------------------------------|

Gtr.III
|--------------------------------------------------------------------------|
|--------------------------------------------------------------------------|
|--10-7--10-7--10-7---10-0-12---0-12---0-12---0-9-5-----9------------------|
|0-----0-----0------7---------9------9------0--------7--7-7-9-9--9---9-----|
|-----------------------------------------------------7------7--7-7-7-7-10-|
|--------------------------------------------------------------------------|
                   ________|              ___________|   _______|            
Gtr. IV           |                       |              |                                
|--------------------------------------------------------------------------|
|--------------------------------------------------------------------------|
|--------------------------------------------------------------------------|
|--------------------------------------------------------------------------|
|-7-7-7-7-7-7-7-712-12-12-12-12-12-12-122-2-2-2-2-2-2-29-9-9-9-9-9-99------|
|-5-5-5-5-5-5-5-510-10-10-10-10-10-10-100-0-0-0-0-0-0-07-7-7-7-7-7-77------|
|--------------------------------------------------------------------------|


Gtr.III
|------------------------------------------------------------------------|
|------------------------------------------------------------------------|
|--------------------12---0-12---0---------------------------------------|
|---10-----10------9----9------9---9------7-7-7-7-7-7-7-7-7-7-7-7-7-7-7-7|
|-8----8-8----10-8------------------------7-7-7-7-7-7-7-7-7-7-7-7-7-7-7-7|
|-----------------------------------------5-5-5-5-5-5-5-5-5-5-5-5-5-5-5-5|

Gtr.IV
|-------------------------------------------------------------------------|
|-------------------------------------------------------------------------|
|-------------------------------------------------------------------------|
|-101010101010101012-12-12-12-12-12-12-12-7-7-7-7-7-7-7-7-7-7-7-7-7-7-7-7-|
|-8-8-8-8-8-8-8-8-10-10-10-10-10-10-10-10-7-7-7-7-7-7-7-7-7-7-7-7-7-7-7-7-|
|-----------------------------------------5-5-5-5-5-5-5-5-5-5-5-5-5-5-5-5-|

[Chorus]

Gtrs.III & IV
|------------------------------------------------------------------|
|------------------------------------------------------------------|
|-7-7-7-7-7-7-7-7-----------------7-7-7-7-9-7-7-7------------------|
|-7-7-7-7-7-7-7-7-7-7-7-7-7-7-7-7-7-7-7-7-7-7-7-7-7-7-7-7-7-7-7-7--|
|-5-5-5-5-5-5-5-5-7-7-7-7-7-7-7-7-5-5-5-5-5-5-5-5-7-7-7-7-7-7-7-7--|
|-----------------5-5-5-5-5-5-5-5-----------------5-5-5-5-5-5-5-5--|


|------------------------------------------------------------------|
|------------------------------------------------------------------|
|-5-5-5-5-5-5-5-5--------------------------------------------------|
|-5-5-5-5-5-5-5-5-5-5-5-5-5-5-5-5-7-7-7-7-7-7-7-7-7-7-7-7-7-7-7-7--|
|-3-3-3-3-3-3-3-3-5-5-5-5-5-5-5-5-7-7-7-7-7-7-7-7-7-7-7-7-7-7-7-7--|
|-----------------3-3-3-3-3-3-3-3-5-5-5-5-5-5-5-5-5-5-5-5-5-5-5-5--|


|------------------------------------------------------------------|
|------------------------------------------------------------------|
|-7-7-7-7-7-7-7-7-----------------7-7-7-7-9-7-7-7------------------|
|-7-7-7-7-7-7-7-7-7-7-7-7-7-7-7-7-7-7-7-7-7-7-7-7-7-7-7-7-7-7-7-7--|
|-5-5-5-5-5-5-5-5-7-7-7-7-7-7-7-7-5-5-5-5-5-5-5-5-7-7-7-7-7-7-7-7--|
|-----------------5-5-5-5-5-5-5-5-----------------5-5-5-5-5-5-5-5--|


|------------------------------------------------------------------|
|------------------------------------------------------------------|
|-5-5-5-5-5-5-5-5--------------------------------------------------|
|-5-5-5-5-5-5-5-5-5-5-5-5-5-5-5-5-7-7-7-7-7-7-7-7-7-7-7-7-7-7-7-7--|
|-3-3-3-3-3-3-3-3-5-5-5-5-5-5-5-5-7-7-7-7-7-7-7-7-7-7-7-7-7-7-7-7--|
|-----------------3-3-3-3-3-3-3-3-5-5-5-5-5-5-5-5-5-5-5-5-5-5-5-5--|

[Outro]

Gtr.III
|------------------------------------------------------------------|
|-11---------------------------------------------------------------|
|----------------------------------12------------------------------|
|--------9--11---11^-9-------------------9--11--11^-9--------------|
|------------------------------------------------------------------|
|------------------------------------------------------------------|

Gtr.IV
|------------------------------------------------------------------|
|------------------------------------------------------------------|
|------------------------------------------------------------------|
|-9--------------------------------5-------------------------------|
|-9--9-9-9-9-9-9-9-9-9-9-9-9-9-9-9-5-5-5-5-5-5-5-5-5-5-5-5-5-5-5---|
|-7--7-7-7-7-7-7-7-7-7-7-7-7-7-7-7-3-3-3-3-3-3-3-3-3-3-3-3-3-3-3---|

Gtr.II
|------------------------------------------------------------------|
|------------------------------------------------------------------|
|------------------------------------------------------------------|
|--------9--11---------------------12-11-12-14-12--14--------------|
|-9----------------------------------------------------------------|
|------------------------------------------------------------------|

Gtr.IV
|------------------------------------------------------------------|
|------------------------------------------------------------------|
|------------------------------------------------------------------|
|-4--------------------------------5-------------------------------|
|-4--4-4-4-4-4-4-4-4-4-4-4-4-4-4-4-5-555555-7-7777777--------------|
|-2--2-2-2-2-2-2-2-2-2-2-2-2-2-2-2-3-333333-5-5555555--------------|

Gtr.III
|-12~--------------------------------------------------------------|
|-------12--14---14^14--12h14p12-----------------------------------|
|---------------------------------12----12----12^^^^--12-12--------|
|------------------------------------------------------------------|
|------------------------------------------------------------------|
|------------------------------------------------------------------|

Gtr.IV
|------------------------------------------------------------------|
|------------------------------------------------------------------|
|------------------------------------------------------------------|
|-9-------------------------------5--------------------------------|
|-9--9-9-9-9-9-9-9-9-9-9-9-9-9-9--5--5-5-5-5-5-5-5-5-5-5-5-5-5-5---|
|-7--7-7-7-7-7-7-7-7-7-7-7-7-7-7--3--3-3-3-3-3-3-3-3-3-3-3-3-3-3---|

Gtr.III
|------------------------------------------------------------------|
|10h11p10h11p10h11p10h11p10h11p10h11p10h11p1010h11-----------------|
|------------------------------------------------------------------|
|------------------------------------------------------------------|
|------------------------------------------------------------------|
|------------------------------------------------------------------|

Gtr.IV
|------------------------------------------------------------------|
|------------------------------------------------------------------|
|------------------------------------------------------------------|
|-4----------------------------------------------------------------|
|-4----------4-----4-----4-----4-----4-----4-----------------------|
|-2----------2-----2-----2-----2-----2-----2-----------------------|

Gtr.III
|------------------------------------------------------------------|
|-10h11p10h11p10h11p10h11p10h11p10h11p10h11p10h11------------------|
|------------------------------------------------------------------|
|------------------------------------------------------------------|
|------------------------------------------------------------------|
|------------------------------------------------------------------|

Gtr.IV
|------------------------------------------------------------------|
|------------------------------------------------------------------|
|------------------------------------------------------------------|
|-4----------------------------------------------------------------|
|-4-----------4-----4-----4-----4-----4-----4----------------------|
|-2-----------2-----2-----2-----2-----2-----2----------------------|

Gtr.III
|------------------------------------------------------------------|
|-11h12p11h12p11h12p11h12p11h12p11h12p11h12p11h12------------------|
|------------------------------------------------------------------|
|------------------------------------------------------------------|
|------------------------------------------------------------------|
|------------------------------------------------------------------|

Gtr.IV
|------------------------------------------------------------------|
|------------------------------------------------------------------|
|------------------------------------------------------------------|
|-5----------------------------------------------------------------|
|-5-----------5-----5-----5-----5-----5-----5----------------------|
|-3-----------3-----3-----3-----3-----3-----3----------------------|

Gtr.III
|------------------------------------------------------------------|
|-12h14p12h14p12h14p12h14p12h14p12h14p12h14p12h14------------------|
|------------------------------------------------------------------|
|------------------------------------------------------------------|
|------------------------------------------------------------------|
|------------------------------------------------------------------|

Gtr.IV
|------------------------------------------------------------------|
|------------------------------------------------------------------|
|------------------------------------------------------------------|
|-7----------------------------------------------------------------|
|-7-----------7-----7-----7-----7-----7-----5----------------------|
|-5-----------5-----5-----5-----5-----5-----5----------------------|

Gtr.III
|------------------------------------------------------------------|
|-11---------------------------------------------------------------|
|----------------------------------12------------------------------|
|--------9--11---11^-9-------------------9--11--11^-9--------------|
|------------------------------------------------------------------|
|------------------------------------------------------------------|

Gtr.IV
|------------------------------------------------------------------|
|------------------------------------------------------------------|
|------------------------------------------------------------------|
|-9--------------------------------5-------------------------------|
|-9--9-9-9-9-9-9-9-9-9-9-9-9-9-9-9-5-5-5-5-5-5-5-5-5-5-5-5-5-5-5---|
|-7--7-7-7-7-7-7-7-7-7-7-7-7-7-7-7-3-3-3-3-3-3-3-3-3-3-3-3-3-3-3---|


Gtr.II
|------------------------------------------------------------------|
|------------------------------------------------------------------|
|------------------------------------------------------------------|
|--------9--11---------------------12-11-12-14-12--14--------------|
|-9----------------------------------------------------------------|
|------------------------------------------------------------------|

Gtr.IV
|------------------------------------------------------------------|
|------------------------------------------------------------------|
|------------------------------------------------------------------|
|-4--------------------------------5-------------------------------|
|-4--4-4-4-4-4-4-4-4-4-4-4-4-4-4-4-5-555555-7-7777777--------------|
|-2--2-2-2-2-2-2-2-2-2-2-2-2-2-2-2-3-333333-5-5555555--------------|

Gtr.III
|------------------------------------------------------------------|
|------------------------------------------------------------------|
|------------------------------------------------------------------|
|-----9------------------------------------------------------------|
|------------------------------------------------------------------|
|------------------------------------------------------------------|

Gtr.IV
|------------------------------------------------------------------|
|------------------------------------------------------------------|
|------------------------------------------------------------------|
|-----9///---------------------------------------------------------|
|-----9///---------------------------------------------------------|
|-----7///---------------------------------------------------------|


Legend:
. = P.M.
/ = Slide
< > = Natural Harmonics
H = Hammer On
P = Pull Off
^ = Bend
~ = Vibrato
Добавлено: 06.05.2012
Другие материалы по этой песне:

Страница создана 21.02.2012
http://primanota.ru/cryhavoc/repent-whore-chords.htm
Привет, Гость.
Предлагаем пройти революционный курс по гитаре.
Подарок от PrimaNota.Ru, забирай!