PrimaNota.ru - самый крупный в мире бесплатный архив песенных текстов, аккордов, табулатур и нот


Cry Wolf - Intro - аккорды и текст, видео

Регистрация Запомнить меня
Войти через:  Facebook Google Twitter Vk Yandex Mail.ru

Cry Wolf - Intro - аккорды и текст, видео

Печатать
Просмотров: 79
Intro
Cry Wolf
-------------------------------------------------------------------------------
                             Intro (ft. Emalyn) - Crywolf
-------------------------------------------------------------------------------
Tuning: standard

Okay, so occasionally he changes how he plays the song during certain parts 
but its mostly just the same stuff over and over again.
  Am7            C              F
e|----------------------------------------0-------0--------------------------|
B|------1---1----------1---1----------1-------1-----1------------------------|
G|----0--0---0-------0---0---0------2---2---2---2-----2----------------------|
D|--2-----2--------2--------------3------------------------------------------|
A|0--------------3--------------3--------------------------------------------|
E|---------------------------------------------------------------------------|

This is the other way he plays *

  Am7             C                          F
e|-------------------------------0----------------------0-----------0--------|
B|------1-----1-------------1------1---1-----------1------1----1------1------|
G|----0---0-----0--------0----0------0---0-------2---2------2----2-------2---|
D|--2-------2---------2---------2----------2---3-------3-----------3---------|
A|0----------------3-------------------------3-------------------------------|
E|---------------------------------------------------------------------------|

________________________________________________________________________________

              
Intro: Am C F Am*C F

Verse:
Am          C              F
Once I was afraid that I'd find you

Am                      C              F
Your patient, trembling eyes would unwind me

F
And all I've become

Am              C     F                 F
Once I was afraid I'd fall in love with you

              Am*  C  F
For the first time
F             Am*  C  F
For the first time

F             Am*  C  F
For the first time

Am*           C                 F
Let's go set fire to all these houses

Am                    C            F
The smoke will billow up with our laughter

Am                        C
The flames will lick your skin

            F              F
And I'll fall in love with you

              Am*  C  F
For the first time

F             Am*  C  F
For the first time

F             Am*  C  F
For the first time

F             Am*  C  F
For the first time

Am                        C
The flames will like your skin

            F              F
And I'll fall in love with you

              Am  C
For the first time

 
************************************

| *   play the other way
| h   hammer-on

************************************
Добавлено: 23.11.2015
Другие материалы по этой песне:
  • Аккорды и текст

Страница создана 23.11.2015
http://primanota.ru/cry-wolf/intro-chords.htm
Привет, Гость.
Предлагаем пройти революционный курс по гитаре.
Подарок от PrimaNota.Ru, забирай!