PrimaNota.ru - самый крупный в мире бесплатный архив песенных текстов, аккордов, табулатур и нот


Cry Wolf - Halloween 1987 - таба, видео

Регистрация Запомнить меня
Войти через:  Facebook Google Twitter Vk Yandex Mail.ru

Cry Wolf - Halloween 1987 - таба, видео

Печатать
Просмотров: 60
-------------------------------------------------------------------------------
                             Halloween, 1987 - Crywolf
-------------------------------------------------------------------------------
Tabbed by:Chris C.
E-mail:

Tuning:Standard
Capo 6

Chords are C and Asus2 for the verse and some kind of F and G for the other part

First Part

e|----------------------------------------------------------------------------|
B|--------3--1-----------------3--1---------------0-----------------0---------|
G|-----0--------h020---------0--------0---------2-----2-----------2-----2-----|
D|---2-------------------2-------------------2---------h020-----2----------2--|
A|-3------------------3--------------------0----------------0-----------------|
E|----------------------------------------------------------------------------|

Other part

e|-------------3----------------------5--------------------------------------------|
B|--------1-------1----------------3----3------------------------------------------|
G|-----2--------------2---------4----------4---------------------------------------|
D|--3------------------------5-----------------------------------------------------|
A|---------------------------------------------------------------------------------|
E|---------------------------------------------------------------------------------|


| /   slide up
| \   slide down
| h   hammer-on
| p   pull-off
| ~   vibrato
| +   harmonic
| x   Mute note
| b   Bend
| pb  Pre-bend
| br  Bend release
| pbr Pre-bend release
| brb Bend release bend

************************************ 
Добавлено: 23.11.2015
Вам также может быть интересно:
Другие материалы по этой песне:
  • Аккорды и текст

Страница создана 23.11.2015
http://primanota.ru/cry-wolf/halloween-1987-chords.htm
Привет, Гость.
Предлагаем пройти революционный курс по гитаре.
Подарок от PrimaNota.Ru, забирай!