PrimaNota.ru - самый крупный в мире бесплатный архив песенных текстов, аккордов, табулатур и нот


Cry Of The Afflicted - Built To Fall - таба, видео

Регистрация Запомнить меня
Войти через:  Facebook Google Twitter Vk Yandex Mail.ru

Cry Of The Afflicted - Built To Fall - таба, видео

Печатать
Просмотров: 128
Here is the following:
Intro/Main Riff
for the 2nd accompaniment guitar.

The lead chords are unknown. If anyone can
figure them out please share with me!
nemesiscleric@aol.com

TUNING: DROP C
intro
D----------------------------------------------------|
A-20-19-17-16-23---20-19-17-16-20--------------------|
F----------------------------------------------------|
C----------------------------------------------------|
G----------------------------------------------------|
C----------------------------------------------------|

verse:
D---------------------------------------------------|
A---------------------------------------------------|
F---------------------------------------------------|
C-2-------0-------------------10-9-7-5--------------|
G-2-(x10)-0-(x10)------5-7-10-----------------------|
C-2-------0-----------------------------------------|
pm

Chorus:
D--20-19--15--17------20-19-15--17-----------------------------------|
A----------------19--------------------------------------------------|
F--------------------------------------------------------------------|
C--------------------------------------------------------------------|
G--------------------------------------------------------------------|
C--------------------------------------------------------------------|

Post Chorus:

D--19------19------19-------17------17------17------15------15--------|
A----171717--171717--171717---151515--151515--151515--131313--131313--|
F---------------------------------------------------------------------|
C---------------------------------------------------------------------|
G---------------------------------------------------------------------|
C---------------------------------------------------------------------|

This is 90% correct.
we just need to add in the main
lead guitar chords. If you know
nemesiscleric@aol.com

Enjoy this song
Добавлено: 09.05.2012
Другие материалы по этой песне:
  • Аккорды и текст

Страница создана 09.05.2012
http://primanota.ru/cry-of-the-afflicted/built-to-fall-chords.htm
Привет, Гость.
Предлагаем пройти революционный курс по гитаре.
Подарок от PrimaNota.Ru, забирай!