PrimaNota.ru - самый крупный в мире бесплатный архив песенных текстов, аккордов, табулатур и нот


Cry Of Love - Peace Pipe - таба, бас-таба, видео

Регистрация Запомнить меня
Войти через:  Facebook Google Twitter Vk Yandex Mail.ru

Cry Of Love - Peace Pipe - таба, бас-таба, видео

Печатать
Просмотров: 128
-------------------------------------------------------------------------------
                             PEACE PIPE - Cry Of Love
-------------------------------------------------------------------------------

Tabbed by: Isaias Garcia (TexasFury)

http://en.wikipedia.org/wiki/Cry_of_Love_(band)

Tuning: Standard



Guitar - left

           PM                           PM                           PM                   
     E  E  S  S S  S Q    Q       E  E  S  S S  S Q    Q       E  E  S  S S  S Q    Q     
E||----------------------------|----------------------------|----------------------------|
B||----------------------------|----------------------------|----------------------------|
G||-----------2------2---------|-----4-----2------2---------|-----------2------2---------|
D||-----4-------2h-4-----------|-----4-------2h-4-4---------|-----4-------2h-4-4---------|
A||-----2--2-------------------|-----2--2-------------------|-----2--2-------------------|
E||----------------------------|----------------------------|----------------------------|


        PM                           PM                           PM                   
  E  E  S  S S  S Q    Q       E  E  S  S S  S Q    Q       E  E  S  S S  S Q    Q     
----------------------------|----------------------------|----------------------------|
----------------------------|----------------------------|----------------------------|
-----4-----2------2---------|-----4-----2------2---------|-----------2------2---------|
-----4-------2h-4-4---------|-----4-------2h-4-----------|-----4-------2h-4-4---------|
-----2--2-------------------|-----2--2-------------------|-----2--2-------------------|
----------------------------|----------------------------|----------------------------|


  Verse 1                                                                                   
             PM                           PM                           PM                   
  E       E  S  S S  S Q    Q       E  E  S  S S  S Q    Q       E  E  S  S S  S Q    Q     
---------------------------------|----------------------------|----------------------------|
---------------------------------|----------------------------|----------------------------|
----------------2------2---------|-----------2------2---------|-----4-----2------2---------|
----------4-------2h-4-4---------|-----4-------2h-4-4---------|-----4-------2h-4-----------|
----------2--2-------------------|-----2--2-------------------|-----2--2-------------------|
---------------------------------|----------------------------|----------------------------|


        PM                           PM                           PM                   
  E  E  S  S S  S Q    Q       E  E  S  S S  S Q    Q       E  E  S  S S  S Q    Q     
----------------------------|----------------------------|----------------------------|
----------------------------|----------------------------|----------------------------|
-----------2------2---------|-----4-----2------2---------|-----4-----2------2---------|
-----4-------2h-4-4---------|-----4-------2h-4-----------|-----4-------2h-4-4---------|
-----2--2-------------------|-----2--2-------------------|-----2--2-------------------|
----------------------------|----------------------------|----------------------------|


        PM                           PM                      
  E  E  S  S S  S Q    Q       E  E  S  S S  S Q    E   S S  
----------------------------|-------------------------------|
----------------------------|-------------------------------|
-----------2------2---------|-----------2------2----L/--x-x-|
-----4-------2h-4-4---------|-----4-------2h-4-4----L/--x-x-|
-----2--2-------------------|-----2--2----------------------|
----------------------------|-------------------------------|


                                                    PM PM                
   E.    S E   E    E   S  S  S  S S S    Q     E   S  S  S S E  E  E    
---------------------------------------|--------------------------------|
--------------------------------10-----|--9~----9\---------------9--L\--|
--11~---11----11~---L--11p-9-11-11-x-x-|--9~----9\---------------9--L\--|
---9~----9-----9~---L---9--L--9----x-x-|--9~----9\---------------9--L\--|
---------------------------------------|------------7--7--x-x-----------|
---------------------------------------|----------------------0---------|


  E   E  E   S  S E  E  E   E      E.    S E   E    E   S  S  S  S S S  
-------------------------------|---------------------------------------|
--9b--9--7b--------------------|--------------------------------10-----|
--9b--9--7b--------------------|--11~---11----11~---L--11p-9-11-11-x-x-|
---------7---9S-7--------------|---9~----9-----9~---L---9--L--9----x-x-|
------------------5--7---------|---------------------------------------|
------------------------5s--7--|---------------------------------------|


           PM PM                                                                   
  Q     E  S  S  E  E  E  S S    Q.     E  E  E  E  E     Q.      S S E  E  E  E   
------------------------------|------------------------|--------------------------|
--9~----9--------------9------|------------------------|--------------------------|
--9~----9--------------9------|------------------------|--------------------------|
--9~----9--------------9------|------------7--9--------|--------------7--9--------|
-----------7--7---------------|--9------x--5--7--7--7--|--9~------x-x-5--7--7--7--|
-----------------0--0-----7-7-|--7------x--------4--5--|--7~------x-x-------4--5--|


  Q     E   S S E  E  E  E     Q     E   S S E  E  E  E     W                   W                 
----------------------------|----------------------------|-------------------|-------------------|
----------------------------|----------------------------|-------------------|-------------------|
----------------------------|----------------------------|-------------------|-------------------|
------------x-x-7--9--------|------------x-x-7--9--------|-------------------|-------------------|
--9~----9\--x-x-5--7--7--7--|--9~----9\--x-x-5--7--7--7--|--9----------------|--L----------------|
--7~----7\------------4--5--|--7~----7\------------4--5--|--7----------------|--L----------------|


                                          Verse 2                         
                                                     PM                   
  W                   W                   E       E  S  S S  S Q    Q     
-------------------|-------------------|---------------------------------|
-------------------|-------------------|---------------------------------|
-------------------|-------------------|----------4-----2------2---------|
-------------------|-------------------|----------4-------2h-4-4---------|
--L----------------|-------------------|----------2--2-------------------|
--L----------------|-------------------|---------------------------------|


        PM                           PM                           PM                   
  E  E  S  S S  S Q    Q       E  E  S  S S  S Q    Q       E  E  S  S S  S Q    Q     
----------------------------|----------------------------|----------------------------|
----------------------------|----------------------------|----------------------------|
-----------2------2---------|-----4-----2------2---------|-----------2------2---------|
-----4-------2h-4-4---------|-----4-------2h-4-4---------|-----4-------2h-4-4---------|
-----2--2-------------------|-----2--2-------------------|-----2--2-------------------|
----------------------------|----------------------------|----------------------------|


        PM                           PM                           PM                   
  E  E  S  S S  S Q    Q       E  E  S  S S  S Q    Q       E  E  S  S S  S Q    Q     
----------------------------|----------------------------|----------------------------|
----------------------------|----------------------------|----------------------------|
-----------2------2---------|-----------2------2---------|-----4-----2------2---------|
-----4-------2h-4-4---------|-----4-------2h-4-4---------|-----4-------2h-4-4---------|
-----2--2-------------------|-----2--2-------------------|-----2--2-------------------|
----------------------------|----------------------------|----------------------------|


        PM                                                              
  E  E  S  S S  S Q    E   S S     E.    S E   E    E   S  S  S  S S S  
-------------------------------|---------------------------------------|
-------------------------------|--------------------------------10-----|
-----------2------2----L/--x-x-|--11~---11----11~---L--11p-9-11-11-x-x-|
-----4-------2h-4-4----L/--x-x-|---9~----9-----9~---L---9--L--9----x-x-|
-----2--2----------------------|---------------------------------------|
-------------------------------|---------------------------------------|


                PM PM                                            
  Q     E   S S S  S  E  E  E      E   E  E   S  S E  E  E   E   
--------------------------------|-------------------------------|
--9~----9~---------------9--L\--|--9b--9--7b--------------------|
--9~----9~---------------9--L\--|--9b--9--7b--------------------|
--9~----9~---------------9--L\--|---------7---9S-7--------------|
------------x-x-7--7------------|------------------5--7---------|
----------------------0---------|------------------------5s--7--|


                                                    PM PM                                           
   E.    S E   E    E   S  S  S  S S S    Q     E   S  S  S S E  E   S S    Q.     S S E  E  E  E   
---------------------------------------|---------------------------------|-------------------------|
--------------------------------10-----|--------9\---------------9\------|--4----------------------|
--11~---11----11~---L--11p-9-11-11-x-x-|--9~----9\---------------9\------|--4----------------------|
---9~----9-----9~---L---9--L--9----x-x-|--9~----9\---------------9\--4-4-|--4------x-x-7--9--------|
---------------------------------------|--7~--------7--7--x-x--------2-2-|--2------x-x-5--7--7--7--|
---------------------------------------|----------------------0----------|-------------------4--5--|


  Q     E   S S E  E  E  E     Q.     S S E  E  E  E     Q     E   S S E  E  Q     
----------------------------|-------------------------|---------------------------|
----------------------------|-------------------------|---------------------------|
----------------------------|-------------------------|---------------------------|
----------------7--9--------|-------------7--9--------|----------------7--9--6----|
--9~----9\--x-x-5--7--7--7--|--9------x-x-5--7--7--7--|--9~----9\--x-x-5--7--7----|
--7~----7\--x-x-------4--5--|--7------x-x-------4--5--|--7~----7\--x-x------------|


  Bridge                                                                              
                                                                     PM               
  H        S S S  S E  S S    H        S S S  S E  S  S    H         S  S S S E  S S  
---------------------------|----------------------------|----------------------------|
--2----------0------x------|-------------4------4-------|---------------4------------|
--2-----------------4--x-4-|--4--------x-4------4--4p-2-|--2------------4--------x-x-|
--2-----------------4--x-4-|--2--------x--------4-------|--2--------(0)-------4--x-x-|
--0------------0h-2-2------|---------------0h-2-2-------|--0--------------2-2-2------|
---------------------------|----------------------------|----------------------------|


  H        E  S S E  S S     E.    S  E   E    E   S  S  S  S  S  S  
-------------------------|------------------------------------------|
-------------------------|---------------------------------10-------|
--4-----------4-4-4--x-x-|--11~---11-14--11~---L--11p-9-11-11--x--x-|
--2-----------4-4-4--x-x-|---9~----9-12---9~---L---9--9--9-----x--x-|
--------------2-2-2------|------------------------------------------|
-------------------------|------------------------------------------|


   E.    S  E   E    E   S  S  S  S  S  S     Q      Q      E  E  E  E   
------------------------------------------|-----------------------------|
---------------------------------10-------|-----------------------------|
--11~---11-14--11~---L--11p-9-11-11--x--x-|--11~----11----7g9-----7--6--|
---9~----9-12---9~---L---9--9--9-----x--x-|---9~-----9---------9--------|
------------------------------------------|-----------------------------|
------------------------------------------|-----------------------------|


                                 Guitar Solo                                        
  Q     Q     S S   E  E  S S    E           E   Q    H           W                 
------------------------------|--------------------------------|-------------------|
------------------------------|--------------------------------|-------------------|
------------------------------|--------------------------------|-------------------|
--9~----9~----9-7-------------|--------------------------------|-------------------|
------------------9g7--5------|--------------------------------|-------------------|
--------------------------7-7-|--7-----------L\----------------|-------------------|



  m.60                                                                                
  W                    E.   S  E   E   E    S  S   E  S S    E  E  E  E  Q.      S S  
-------------------|--------------------------------------|--------------------------|
-------------------|--------------------------------------|--------------------------|
-------------------|--11---11--x--11---L~--11p-9h-11------|--6--6-----6--L~----------|
-------------------|---9----9--x---9---L~---9--L---L--x-x-|--7--7-----7--L~----------|
-------------------|--------------------------------------|--------0-------------0-0-|
-------------------|--------------------------------------|--------------------------|


  H        S S S  S E    E      H        S S S  S E   E      H        S S S  S E  E   
------------------------(0)--|-----------------------(0)--|--------------------------|
-------------0----------(0)--|-------------4------4--(0)--|-------------0------------|
--2-----------------4\-------|--4--------x-4------4-------|--2--------------------4--|
--2-----------------4\-------|--2--------x--------4-------|--2-----------------4--4--|
--0------------0h-2-2--------|---------------0h-2-2-------|--0------------0h-2-2-----|
-----------------------------|----------------------------|--------------------------|


  H        S S E  Q       W                   H        Q    E  E   
-----------------------|-------------------|----------------------|
--0----------4-4-------|-------------------|----------------------|
--4----------4-4--4----|-------------------|----------------------|
--2------------4--4----|-------------------|----------------------|
------------------2----|-------------------|----------------7--7--|
-----------------------|-------------------|----------------4--5--|


  Out-chorus                                                                                
  Q          E   S S E  E  E  E     Q     E   S S E  E  E  E     Q     E   S S E  E  E  E   
---------------------------------|----------------------------|----------------------------|
---------------------------------|----------------------------|----------------------------|
---------------------------------|----------------------------|----------------------------|
-----------------x-x-7--9--------|------------x-x-7--9--------|------------x-x-7--9--------|
--9~---------9\--x-x-5--7--7--7--|--9~----9\--x-x-5--7--7--7--|--9~----9\--x-x-5--7--7--7--|
--7~---------7\------------4--5--|--7~----7\------------4--5--|--7~----7\------------4--5--|


                               Out-solo                                                   
  Q     E   S S E  E  E  E     Q        E   S S E  E  E  E     Q     E   S S E  E  E  E   
----------------------------|-------------------------------|----------------------------|
----------------------------|-------------------------------|----------------------------|
----------------------------|-------------------------------|----------------------------|
------------x-x-7--9--------|---------------x-x-7--9--------|------------x-x-7--9--------|
--9~----9\--x-x-5--7--7--7--|--9~-------9\--x-x-5--7--7--7--|--9~----9\--x-x-5--7--7--7--|
--7~----7\------------4--5--|--7~-------7\------------4--5--|--7~----7\------------4--5--|


  Q     E   S S E  E  E  E     Q     E   S S E  E  E  E     Q     E   S S E  E  E  E   
----------------------------|----------------------------|----------------------------|
----------------------------|----------------------------|----------------------------|
----------------------------|----------------------------|----------------------------|
------------x-x-7--9--------|------------x-x-7--9--------|------------x-x-7--9--------|
--9~----9\--x-x-5--7--7--7--|--9~----9\--x-x-5--7--7--7--|--9~----9\--x-x-5--7--7--7--|
--7~----7\------------4--5--|--7~----7\------------4--5--|--7~----7\------------4--5--|


  Q     E   S S E  E  E  E     Q     E   S S E  E  E  E     Q     E   S S E  E  E  E   
----------------------------|----------------------------|----------------------------|
----------------------------|----------------------------|----------------------------|
----------------------------|----------------------------|----------------------------|
------------x-x-7--9--------|------------x-x-7--9--------|------------x-x-7--9--------|
--9~----9\--x-x-5--7--7--7--|--9~----9\--x-x-5--7--7--7--|--9~----9\--x-x-5--7--7--7--|
--7~----7\------------4--5--|--7~----7\------------4--5--|--7~----7\------------4--5--|


  Q     E   S S E  E  E  E     Q     E   S S E  E  E  E     Q     E   S S E  E  E  E   
----------------------------|----------------------------|----------------------------|
----------------------------|----------------------------|----------------------------|
----------------------------|----------------------------|----------------------------|
------------x-x-7--9--------|------------x-x-7--9--------|------------x-x-7--9--------|
--9~----9\--x-x-5--7--7--7--|--9~----9\--x-x-5--7--7--7--|--9~----9\--x-x-5--7--7--7--|
--7~----7\------------4--5--|--7~----7\------------4--5--|--7~----7\------------4--5--|


  Q     E   S S E  E  E  E     Q     E   S S E  E  E  E     Q     E   S S E  E  E  E   
----------------------------|----------------------------|----------------------------|
----------------------------|----------------------------|----------------------------|
----------------------------|----------------------------|----------------------------|
------------x-x-7--9--------|------------x-x-7--9--------|------------x-x-7--9--------|
--9~----9\--x-x-5--7--7--7--|--9~----9\--x-x-5--7--7--7--|--9~----9\--x-x-5--7--7--7--|
--7~----7\------------4--5--|--7~----7\------------4--5--|--7~----7\------------4--5--|


  Q     E   S S E  E  E  E     Q     E   S S E  E  E  E     Q     E   S S E  E  E  E   
----------------------------|----------------------------|----------------------------|
----------------------------|----------------------------|----------------------------|
----------------------------|----------------------------|----------------------------|
------------x-x-7--9--------|------------x-x-7--9--------|------------x-x-7--9--------|
--9~----9\--x-x-5--7--7--7--|--9~----9\--x-x-5--7--7--7--|--9~----9\--x-x-5--7--7--7--|
--7~----7\------------4--5--|--7~----7\------------4--5--|--7~----7\------------4--5--|


  Q     E   S S E  E  E  E     Q     E   S S E  E  E  E     Q     E   S S E  E  E  E   
----------------------------|----------------------------|----------------------------|
----------------------------|----------------------------|----------------------------|
----------------------------|----------------------------|----------------------------|
------------x-x-7--9--------|------------x-x-7--9--------|------------x-x-7--9--------|
--9~----9\--x-x-5--7--7--7--|--9~----9\--x-x-5--7--7--7--|--9~----9\--x-x-5--7--7--7--|
--7~----7\------------4--5--|--7~----7\------------4--5--|--7~----7\------------4--5--|


  Q    Q     H          
----------------------||
----------------------||
----------------------||
----------------------||
--9----9\-------------||
--7----7\-------------||




Guitar - right

     W                   W                   E  E  S S S  S Q    Q       E  E  S S S  S Q    Q     
E||-------------------|-------------------|---------------------------|---------------------------|
B||-------------------|-------------------|---------------------------|---------------------------|
G||-------------------|-------------------|-----4----2------2---------|-----4----2------2---------|
D||-------------------|-------------------|-----4------2h-4-4---------|-----4------2h-4-4---------|
A||-------------------|-------------------|-----2---------------------|-----2---------------------|
E||-------------------|-------------------|---------------------------|---------------------------|


                                                          Verse 1                        
  E  E  S S S  S Q    Q       E  E  S S S  S Q    Q       E       E  S S S  S Q    Q     
---------------------------|---------------------------|--------------------------------|
-----4---------------------|-----4---------------------|----------4---------------------|
-----4----2------2---------|-----4----2------2---------|----------4----2------2---------|
-----4------2h-4-4---------|-----4------2h-4-4---------|----------4------2h-4-4---------|
-----2---------------------|-----2---------------------|----------2---------------------|
---------------------------|---------------------------|--------------------------------|


  E  E  S S S  S Q    Q       E  E  S S S  S Q    Q       E  E  S S S  S Q    Q     
---------------------------|---------------------------|---------------------------|
-----4---------------------|-----4---------------------|-----4---------------------|
-----4----2------2---------|-----4----2------2---------|-----4----2------2---------|
-----4------2h-4-4---------|-----4------2h-4-4---------|-----4------2h-4-4---------|
-----2---------------------|-----2---------------------|-----2---------------------|
---------------------------|---------------------------|---------------------------|


  E  E  S S S  S Q    Q       E  E  S S S  S Q    Q       E  E  S S S  S Q    Q     
---------------------------|---------------------------|---------------------------|
---------------------------|-----4---------------------|---------------------------|
-----4----2------2---------|-----4----2------2---------|-----4----2------2---------|
-----4------2h-4-4---------|-----4------2h-4-4---------|-----4------2h-4-4---------|
-----2---------------------|-----2---------------------|-----2---------------------|
---------------------------|---------------------------|---------------------------|


  E  E  S S S  S Q.     S S     E.    S E   E    E   S  S  S  S S S  
----------------------------|---------------------------------------|
-----4----------------------|--------------------------------10-----|
-----4----2------2------x-x-|--11~---11----11~---L--11p-9-11-11-x-x-|
-----4------2h-4-4------x-x-|---9~----9-----9~---L---9--L--9----x-x-|
-----2----------------------|---------------------------------------|
----------------------------|---------------------------------------|


  E   E  E    S S S S E  E  E      E   E  E   S  S E  E  E   E      E.    S  E   E    Q     E.   S  
--------------------------------|-------------------------------|----------------------------------|
-------------------------9--L\--|--9b--9--7b--------------------|----------------------------------|
--9~-----9\~-------------9--L\--|--9b--9--7b--------------------|--11~---11-14--11~---L-----L----x-|
--9~-----9\~-------------9--L\--|---------7---9S-7--------------|---9~----9-12---9~---L-----L----x-|
------7-------x-x-x-x-----------|------------------5--7---------|----------------------------------|
----------------------0---------|------------------------5s--7--|----------------------------------|


  E   E  E   S S S S E  E  E      Q.     S S E  E  E  E     Q     E   S S E  E  E  E   
-------------------------------|-------------------------|----------------------------|
--9~-----9~-------------9--L\--|--4----------------------|----------------------------|
--9~-----9~-------------9--L\--|--4----------------------|----------------------------|
--9~-----9~-------------9--L\--|--4------x-x-7--9--------|----------------7--9--------|
------7--7---x-x-x-x-----------|--2------x-x-5--7--7--7--|--9~----L\--x-x-5--7--7--7--|
---------------------0---------|-------------------4--5--|--7~----L\--x-x-------4--5--|


  Q     E   S S E  E  E  E     Q     E   S S E  E  E  E     W                   W                 
----------------------------|----------------------------|-------------------|-------------------|
----------------------------|----------------------------|-------------------|-------------------|
----------------------------|----------------------------|--8----------------|--L----------------|
----------------7--9--------|----------------7--9--------|-------------------|-------------------|
--9~----L\--x-x-5--7--7--7--|--9~----L\--x-x-5--7--7--7--|--9----------------|--L----------------|
--7~----L\--x-x-------4--5--|--7~----L\--x-x-------4--5--|--7----------------|--L----------------|


                                          Verse 2                        
  W                   W                   E       E  S S S  S Q    Q     
-------------------|-------------------|--------------------------------|
-------------------|-------------------|--------------------------------|
--L----------------|-------------------|----------4----2------2---------|
-------------------|-------------------|----------4------2h-4-4---------|
--L----------------|-------------------|----------2---------------------|
--L----------------|-------------------|--------------------------------|


  E  E  S S S  S Q    Q       E  E  S S S  S Q    Q       E  E  S S S  S Q    Q     
---------------------------|---------------------------|---------------------------|
-----4---------------------|---------------------------|-----4---------------------|
-----4----2------2---------|-----4----2------2---------|-----4----2------2---------|
-----4------2h-4-4---------|-----4------2h-4-4---------|-----4------2h-4-4---------|
-----2---------------------|-----2---------------------|-----2---------------------|
---------------------------|---------------------------|---------------------------|


  E  E  S S S  S Q    Q       E  E  S S S  S Q    Q       E  E  S S S  S Q    Q     
---------------------------|---------------------------|---------------------------|
-----4---------------------|-----4---------------------|-----4---------------------|
-----4----2------2---------|-----4----2------2---------|-----4----2------2---------|
-----4------2h-4-4---------|-----4------2h-4-4---------|-----4------2h-4-4---------|
-----2---------------------|-----2---------------------|-----2---------------------|
---------------------------|---------------------------|---------------------------|


  E  E  S S S  S E  E  E  S S     E.    S  E   E   Q.     S S    E   E  E   E  E  E  E  S S  
------------------------------|-------------------------------|-----------------------------|
-----4------------------------|-------------------------------|--9~-----9~-----------9------|
-----4----2------2--------x-x-|--11~---11--x--11---L------x-9-|--9~-----9~-----------9--x-x-|
-----4------2h-4-4--4--4--x-x-|---9~----9--x---9---L------x-9-|--9~--9--9~-----x-----9--x-x-|
-----2------------------------|-------------------------------|---------7------x------------|
------------------------------|-------------------------------|-------------0-----0---------|


  E   E  E   E   E  E  E   E      E.    S  E   E    E   S  S  S  S S S  
------------------------------|----------------------------------------|
--9b--9--7b-------------------|---------------------------------10-----|
--9b--9--7b-------------------|--11~---11--x--11~---L--11p-9-11-11-x-x-|
---------7---9\---------------|---9~----9--x---9~---L---9--L--9----x-x-|
-----------------5--7---------|----------------------------------------|
-----------------------5s--7--|----------------------------------------|


  E   E  E   E  E  E  E  S S    Q.     S S E  E  E  E     Q     E   S S E  E  E  E   
-----------------------------|-------------------------|----------------------------|
--9~-----9\-----------9------|--4----------------------|----------------------------|
--9~-----9\-----------9------|--4----------------------|----------------------------|
--9~--9--9\-----------9--4-4-|--4------x-x-7--9--------|----------------7--9--------|
-------------------------2-2-|--2------x-x-5--7--7--7--|--9~----L\--x-x-5--7--7--7--|
-------------0--0--0---------|-------------------4--5--|--7~----L\--x-x-------4--5--|


                                                           Bridge                  
  Q     E   S S E  E  E  E     Q     E  S S E  E  E  E     H        S S S  S Q     
----------------------------|---------------------------|-------------------------|
----------------------------|---------------------------|-------------------------|
----------------------------|---------------------------|-------------4------4----|
----------------7--9--------|---------------7--9--------|--2-----------------4----|
--9~----L\--x-x-5--7--7--7--|--9~----L--x-x-5--7--7--7--|--0------------0h-2-2----|
--7~----L\--x-x-------4--5--|--7~----L--x-x-------4--5--|-------------------------|


             PM         PM                                                         
  H        S S  S  S E  E     H        S S S  S E  S S    H        E  S  S E  S S  
---------------------------|---------------------------|--------------------------|
--0------------------------|---------------------------|--0--------L--------------|
--4--------x-4-------4-----|--2--------L-4---------x-4-|--4--------L----------x-x-|
--2--------x---------4-----|--2--------L--------4--x---|--2--------L-------4--x-x-|
----------------0h-2-2--0--|--0--------L---0h-2-2------|--------------0h-2-2------|
---------------------------|---------------------------|--------------------------|


   E.   S  E   E  Q    E   S  S     E.  S  E   E  Q.      S  S     E   E   Q      E  E  E  E   
--11----------11----------------|-------7----------------------|------------------------------|
--------------------------------|------------------------------|------------------------------|
--11---11--x--11-----------x--x-|--11-----11--11---------------|--11--11--11----7g9-----7--6--|
---9----9--x---9-----------x--x-|---9------9---9---------------|---9---9---9---------9--------|
--------------------------------|---7------7------7------------|------------------------------|
------------------7----7--------|------------------------10-10-|--10--10--10------------------|


                                      Guitar Solo                                               
  Q    Q        S  S  S  S E   E      W                   W                   W                 
-----------------------------------|-------------------|-------------------|-------------------|
------------10g12-10---------------|-------------------|-------------------|-------------------|
---------------------11s-9-7b------|-------------------|-------------------|-------------------|
--9----9-----------------------9~--|-------------------|-------------------|-------------------|
-----------------------------------|-------------------|-------------------|-------------------|
-----------------------------------|-------------------|-------------------|-------------------|



   m.61                                                                            
   E.   S  E   E   Q.     E     E.  S S S E  Q.     E     H        S S S  S E  E   
-----------------------------|--5---5-5---5--L---------|--------------------------|
-----------------------------|--5---5-5-x-5--L---------|--------------------------|
--11---11--x--11---L------x--|--6---6-6-x-6--L---------|-------------4------4-----|
---9----9--x---9---L------x--|--7---7---x-7--L---------|--2-----------------4-----|
-----------------------------|--7---7-----7--L---------|--0------------0h-2-2--0--|
-----------------------------|--5---5-----5--L------0--|--------------------------|


             PM                                                      PM            
  H        S S  S  S E  S S    H        S S S  S E  E     H        S S  S  S Q     
----------------------------|--------------------------|--------------------------|
--0-------------------------|--------------------------|--0-----------------------|
--4--------x-4--------------|--2----------4------4-----|--4--------x-4------------|
--2--------x---------4------|--2-----------------4-----|--2--------x---------4----|
----------------0h-2-2--0-0-|--0------------0h-2-2--0--|----------------0h-2-2----|
----------------------------|--------------------------|--------------------------|


                                             Out-chorus                      
  W                   H        Q    E  E     Q          E   S S E  E  E  E   
-------------------|----------------------|---------------------------------|
-------------------|----------------------|---------------------------------|
-------------------|----------------------|---------------------------------|
-------------------|----------------------|-----------------x-x-7--9--------|
-------------------|----------------7--7--|--9~---------9\--x-x-5--7--7--7--|
-------------------|----------------4--5--|--7~---------7\------------4--5--|


  Q     E   S S E  E  E  E     Q     E   S S E  E  E  E     Q     E   S S E  E  E  E   
----------------------------|----------------------------|----------------------------|
----------------------------|----------------------------|----------------------------|
----------------------------|----------------------------|----------------------------|
------------x-x-7--9--------|------------x-x-7--9--------|------------x-x-7--9--------|
--9~----9\--x-x-5--7--7--7--|--9~----9\--x-x-5--7--7--7--|--9~----9\--x-x-5--7--7--7--|
--7~----7\------------4--5--|--7~----7\------------4--5--|--7~----7\------------4--5--|


  Out-solo                                                                                
  Q        E   S S E  E  E  E     Q     E   S S E  E  E  E     Q     E   S S E  E  E  E   
-------------------------------|----------------------------|----------------------------|
-------------------------------|----------------------------|----------------------------|
-------------------------------|----------------------------|----------------------------|
---------------x-x-7--9--------|------------x-x-7--9--------|------------x-x-7--9--------|
--9~-------9\--x-x-5--7--7--7--|--9~----9\--x-x-5--7--7--7--|--9~----9\--x-x-5--7--7--7--|
--7~-------7\------------4--5--|--7~----7\------------4--5--|--7~----7\------------4--5--|


  Q     E   S S E  E  E  E     Q     E   S S E  E  E  E     Q     E   S S E  E  E  E   
----------------------------|----------------------------|----------------------------|
----------------------------|----------------------------|----------------------------|
----------------------------|----------------------------|----------------------------|
------------x-x-7--9--------|--9---------x-x-7--9--------|------------x-x-7--9--------|
--9~----9\--x-x-5--7--7--7--|--9~----9\--x-x-5--7--7--7--|--9~----9\--x-x-5--7--7--7--|
--7~----7\------------4--5--|--7~----7\------------4--5--|--7~----7\------------4--5--|


  Q     E   S S E  E  E  E     Q     E   S S E  E  E  E     Q     E   S S E  E  E  E   
----------------------------|----------------------------|----------------------------|
----------------------------|----------------------------|----------------------------|
----------------------------|----------------------------|----------------------------|
--9---------x-x-7--9--------|------------x-x-7--9--------|------------x-x-7--9--------|
--9~----9\--x-x-5--7--7--7--|--9~----9\--x-x-5--7--7--7--|--9~----9\--x-x-5--7--7--7--|
--7~----7\------------4--5--|--7~----7\------------4--5--|--7~----7\------------4--5--|


  Q     E   S S E  E  E  E     Q     E   S S E  E  E  E     Q     E   S S E  E  E  E   
----------------------------|----------------------------|----------------------------|
----------------------------|----------------------------|----------------------------|
----------------------------|----------------------------|----------------------------|
--9---------x-x-7--9--------|------------x-x-7--9--------|------------x-x-7--9--------|
--9~----9\--x-x-5--7--7--7--|--9~----9\--x-x-5--7--7--7--|--9~----9\--x-x-5--7--7--7--|
--7~----7\------------4--5--|--7~----7\------------4--5--|--7~----7\------------4--5--|


  Q     E   S S E  E  E  E     Q     E   S S E  E  E  E     Q     E   S S E  E  E  E   
----------------------------|----------------------------|----------------------------|
----------------------------|----------------------------|----------------------------|
----------------------------|----------------------------|----------------------------|
--9---------x-x-7--9--------|------------x-x-7--9--------|------------x-x-7--9--------|
--9~----9\--x-x-5--7--7--7--|--9~----9\--x-x-5--7--7--7--|--9~----9\--x-x-5--7--7--7--|
--7~----7\------------4--5--|--7~----7\------------4--5--|--7~----7\------------4--5--|


  Q     E   S S E  E  E  E     Q     E   S S E  E  E  E     Q     E   S S E  E  E  E   
----------------------------|----------------------------|----------------------------|
----------------------------|----------------------------|----------------------------|
----------------------------|----------------------------|----------------------------|
------------x-x-7--9--------|------------x-x-7--9--------|------------x-x-7--9--------|
--9~----9\--x-x-5--7--7--7--|--9~----9\--x-x-5--7--7--7--|--9~----9\--x-x-5--7--7--7--|
--7~----7\------------4--5--|--7~----7\------------4--5--|--7~----7\------------4--5--|


  Q     E   S S E  E  E  E     Q     E   S S E  E  E  E     Q    Q     H          
----------------------------|----------------------------|----------------------||
----------------------------|----------------------------|----------------------||
----------------------------|----------------------------|----------------------||
------------x-x-7--9--------|------------x-x-7--9--------|----------------------||
--9~----9\--x-x-5--7--7--7--|--9~----9\--x-x-5--7--7--7--|--9----9\-------------||
--7~----7\------------4--5--|--7~----7\------------4--5--|--7----7\-------------||



Guitar - lead

  m.50                                                         Guitar Solo                          
  W                   W                   W                    E           E    Q    E   E   Q      
-------------------|-------------------|-------------------|--------------10----L------------------|
-------------------|-------------------|-------------------|--10----------10----L----9b--Lb--9~----|
-------------------|-------------------|-------------------|---9b----------9b---L----9b--Lb--9~----|
-------------------|-------------------|-------------------|---------------------------------------|
-------------------|-------------------|-------------------|---------------------------------------|
-------------------|-------------------|-------------------|---------------------------------------|


      |--3-|     |--3-|                                                             
  E   S  S S E   S  S S S S  S S T  T  S S S    S  S S S  Q       E   S  S   Q      
---------------------------------------------|-------7---------------10------------|
--7----------7-------------------------------|-----7---7-10b~-----L-----10b--L~----|
--7b---------7b------------------9b-Lp-7---9-|--9b---------------------------------|
------9p-7-------9p-7---7----------------9---|-------------------------------------|
-----------9----------9---9\-5---------------|-------------------------------------|
-------------------------------7-------------|-------------------------------------|


  |--3--| |--3-|                      |--3-|  |--3-| |-3-|             
  S  S  S S S  S T   T  T  T S  T  T  S S  S  S  S S S S S T T   T  T  
--7-------------------------------------------------------------------|
----10p-7---7-10-7h-10p-7----7-10p-7----7--------------------7h-10p-7-|
----------9---------------10---------10---10p-9p-7---9---7-9----------|
---------------------------------------------------9---9--------------|
----------------------------------------------------------------------|
----------------------------------------------------------------------|


  S  E.    E   S  S  E.    S    E    S  S     Q       S  S  E    S  S  S  S  Q      
--7-----------10----12b---12br--L~--10----|----------------------------------------|
----10b----L-----10--------------------12-|--12br----10-12-12b---L--L-10-12--------|
------------------------------------------|---------------------------------11~----|
------------------------------------------|----------------------------------------|
------------------------------------------|----------------------------------------|
------------------------------------------|----------------------------------------|


   S  S  S   T   T  S  S    S  S S S  T  T S E   T  T S  
--------------------------------------------------------|
--10-12-12b--Lp-10----10--------------------------------|
-------------------11----11g9p-7-9-9b-Lp-7---7b---------|
-------------------------------------------9-----9p-7---|
------------------------------------------------------9-|
--------------------------------------------------------|


  E   T  T S  E   T T  S  E   T  T  S     S  T   T  S   S      Q.       E   H         
-------------------------10b--7-------------10h-12-12b-10b-|-------------------------|
--7b---------10b--7-------------10p-7-10g12----------------|--12~------12\-----------|
--7b----------------9p-7-----------------------------------|-------------------------|
------9p-7-------------------------------------------------|-------------------------|
-----------9-----------------------------------------------|-------------------------|
-----------------------------------------------------------|-------------------------|


  m.72                 Out-solo                                                                    
                                                         |--3--|                           |--3-|  
  W                    H          S   S  S  S  Q         S  S  S S  S S  S S S E   E   E   S  S S  
-------------------|----------------------------------|--7----------------------------------------|
-------------------|--10b--------10b--L--L--L-10b~----|----10p-7----------------------------------|
-------------------|----------------------------------|----------9-10-7b---7-9-9b--7b-----------7-|
-------------------|----------------------------------|------------------9-------------9~--7h-9---|
-------------------|----------------------------------|-------------------------------------------|
-------------------|----------------------------------|-------------------------------------------|


                                    |--3--|                         
   Q.       E  S  S S  S  Q         S  S  S S  S S  E.    H         
---------------7----7------------|--7----------7-------------------|
--10b------10----10---10-10b~----|----10p-7------7-10b----L--------|
---------------------------------|----------9b---------------------|
---------------------------------|---------------------------------|
---------------------------------|---------------------------------|
---------------------------------|---------------------------------|


                                                                   PM                     
                       |--3--|                                                            
   E  S  S S  E.    E  S  S  S  S   S   S  S    S  S S     S  S  S S  S S    S  E  Q      
------7----7-----------7---------------------|-------------------------------------------|
---L----10---10b----L----10p-7---------------|-------------------------------------------|
-------------------------------10h-11p-10p-9-|--7b---7-11g14--L\-------------------------|
---------------------------------------------|-----9-------------7----7-9-9g11s-9--Lb----|
---------------------------------------------|---------------------9---------------------|
---------------------------------------------|-------------------------------------------|


  Q.      S S E  E   E  S S    S S T  T S E  S S  S S S   S  Q       
----------------------------|-----------------------7-x-------------|
----------------------------|------------------7-10---7h-10-10b~----|
----------------------------|-------------7--9----------------------|
--9~--------7---------------|-----------7---------------------------|
----------9---7--5b--5------|----5-7s-9-----------------------------|
------------------------7-5-|---------------------------------------|


  S S  E    E.   S S  S E   Q        E   E    E.   S S  S E   Q      
----------------------------------|---------------------------------|
----x-10b--10~---7----------------|--x--10b--10~---7----------------|
----x--------------9b-L-7b--------|--x---------------9b-L-7b--------|
----------------------------9~----|---------------------------9~----|
----------------------------------|---------------------------------|
----------------------------------|---------------------------------|


  E   E    E.   S S  S E   Q            E    E    S. T  T   T  S E   S   S  S  S  S  S  
---------------------------------|-----------------------------------------------------|
--x--10b--10~---7----------------|---------------22-19---------------------19----21----|
--x---------------9b-L-7b--------|----------21b--------21p-19-------19h-21----21----21-|
---------------------------9~----|--9g(14)--------------------21-----------------------|
---------------------------------|-----------------------------------------------------|
---------------------------------|-----------------------------------------------------|


   Q      E   E    E    S     S   E    E         S   E.    E    S  S   E   E   S     S  S  S  
-----------------------------(0)-------------|-----------------------------------------------|
--22b-----L--22b---L~--22pbr-----17b--17pbr--|--15b------------------------------------19----|
---------------------------------------------|------16~----L~---x-16b--L---L\-------------19-|
---------------------------------------------|-----------------------------------16g21-------|
---------------------------------------------|-----------------------------------------------|
---------------------------------------------|-----------------------------------------------|


   E    S  S    S  S  E     S  E     S  E     S  S   
----------------------------------------------------|
---x---22---------22-------22-------22-------22-----|
--21b-----21b~--L----21b~-----21b~-----21b~-----21b-|
----------------------------------------------------|
----------------------------------------------------|
----------------------------------------------------|


   S  S  E     S  E     S  E     S  S    E   E       S  E    S  E   S  S  E   T     T   S  E    E   
--------------------------------------------------|------------------------------------------------|
-----22-------22-------22-------22------22--------|---------22-22--22-22-22------------------------|
---L----21b~-----21b~-----21b~-----21b~-----21b~--|----21b-------------------21pbr--Lp-19-21b---L--|
--------------------------------------------------|------------------------------------------------|
--------------------------------------------------|------------------------------------------------|
--------------------------------------------------|------------------------------------------------|


   E     S  S    S  S  S  S  E    S  S  E    S  S  
--------------------------------------------------|
--------22---------22-----------------------------|
--21b~-----21b~--L----21-19-19b-------------19----|
---------------------------------21-19-21~-----21-|
--------------------------------------------------|
--------------------------------------------------|


                                             |---3--|           
   S  S  T     T   S  S  S  T  T  S  S  S    S   S  S  S  E.    
---------------------------------------------------------------|
---------------------------------------------------------------|
--19-21-21pbr--Lp-19-21-19----19-21--L-21br--Lp-19----19-21b---|
---------------------------21----------------------21----------|
---------------------------------------------------------------|
---------------------------------------------------------------|


   E.     S  E     S  S    E   E     S  E     S  
------------------------------------------------|
---------22-------22------22--------22-------22-|
--21b~------21b~-----21b~-----21b~-----21b~-----|
------------------------------------------------|
------------------------------------------------|
------------------------------------------------|


   E     S  S    E   E  H                                          
-----------------------------------------------------------------||
--------22-------------------------------------------------------||
--21b~-----21b~--L\----------------------------------------------||
-----------------------------------------------------------------||
-----------------------------------------------------------------||
-----------------------------------------------------------------||




Duration Legend
---------------
W - whole
H - half
Q - quarter
E - 8th
S - 16th
T - 32nd
X - 64th
. - note dotted
|-n-|  - n-tuplets


Tablature Legend
----------------
L - tied note
x - dead note
g - grace note
(n) - ghost note
> - accentuded note
NH - natural harmonic
AH - artificial harmonic
TH - tapped harmonic
SH - semi harmonic
PH - pitch harmonic
h - hammer on
p - pull off
b - bend
br - bendRelease
pb - preBend
pbr - preBendRelease
brb - bendReleaseBend
\n/ - tremolo bar dip
\n - tremolo bar dive
-/n - tremolo bar Release up
/n\ - tremolo bar inverted dip
/n - tremolo bar return
-\n - tremolo bar Release down
S - shift slide
s - legato slide
/ -  slide into from below or out of upwards
\ -  slide into from above or out of downwards
~ - vibrato
W - wide vibrato
tr - trill
TP - tremolo picking
T - tapping
S - slap
P - pop
< - fade in
^ - brush up
v - brush down


Добавлено: 24.07.2012
Другие материалы по этой песне:

Страница создана 26.04.2012
http://primanota.ru/cry-of-love/peace-pipe-chords.htm
Привет, Гость.
Предлагаем пройти революционный курс по гитаре.
Подарок от PrimaNota.Ru, забирай!