PrimaNota.ru - самый крупный в мире бесплатный архив песенных текстов, аккордов, табулатур и нот


Cry Of Love - Highway Jones - таба, бас-таба, видео

Регистрация Запомнить меня
Войти через:  Facebook Google Twitter Vk Yandex Mail.ru

Cry Of Love - Highway Jones - таба, бас-таба, видео

Печатать
Просмотров: 102
Уроки эстрадного вокала в Санкт-Петербурге
-------------------------------------------------------------------------------
                             HIGHWAY JONES - Cry Of Love
-------------------------------------------------------------------------------

Tabbed by: Isaias Garcia (TexasFury)

Tuning: Standard

     Intro                                                                                     
     H         Q        Q         W                    W                    W                  
E||-----------15pbr-----L~----|---L----------------|---L----------------|---L-----------------|
B||---------------------------|--------------------|--------------------|---------------------|
G||---------------------------|--------------------|--------------------|---------------------|
D||---------------------------|--------------------|--------------------|--12~----------------|
A||---------------------------|--------------------|--------------------|---------------------|
E||---------------------------|--------------------|--------------------|---------------------|


   W                    W                    W                    W                  
--------------------|--------------------|--------------------|---------------------|
--------------------|--------------------|--------------------|---------------------|
--------------------|--------------------|--------------------|--12~----------------|
---L----------------|---L----------------|---L----------------|---L-----------------|
--------------------|--------------------|--------------------|---------------------|
--------------------|--------------------|--------------------|---------------------|


                          ^    ^  ^ ^ ^ ^ ^ ^   v ^ v                                
   H.            E  E     Q    E  S S S S S S S S S S    E  E  S S E  E  E  E   E    
-----------------------|------------------------------|-----------------------------|
--------------------x--|--x----x--x---x---x-----0-0---|-----9-----------------------|
---L-------------L--x--|--x----x--x-x-x-x-x-x-------x-|-----9--x-x----9-------------|
---L-------------L-----|------------x---x---x---------|--------x-x----9-------------|
-----------------------|------------------------------|---------------------9b--9~--|
-----------------------|------------------------------|--9---------9-----9----------|


            PM PM              PM PM    PM PM                         
  E  E   E  S  S  E   E   S  S S  S     S  S  E  E   E   E  E  E  E   
-------------------------------------|-------------------------------|
-------------------------------------|-------------------------------|
-------------------------------------|-------------------------------|
-------------------------------------|-------------------------------|
--L--7~--L--7--7--9b--7b--9p-7-------|-----------7\------------------|
-------------------------------9--9--|--x--x--9------7\--2--3--4--0--|


                                                       v       PM          
                 |---3--|      |---3--|                                    
  E  E  E     E  S   S  S  S S S   S  S  E     E  E  S S E  E  E  E   E    
-----0--L-----------------------------------|-----------------------------|
-----0--L-----------------------------------|-----9---------9-------------|
-----------------9h-11p-9----9-9---L--L-----|--------x-x----9-------------|
--------------------------11---9h-11p-9-----|--------x-x------------------|
-----------7g11-------------------------11--|---------------------9b--9~--|
--L-----------------------------------------|--9---------9-----9----------|


              v              PM      PM PM                                                         
  E  E   E  S S E   E   S  S S  S    S  S  E  E   E   E  E  E  E     E  E   E   E   E   E   Q      
----------------------------------|-------------------------------|-----0-------------------------|
----------------------------------|-------------------------------|-----0-------9~--L-------------|
------------x-x-------------------|-------------------------------|-------------9~--L--11b--9~----|
------------x-x-------------------|-------------------------------|--------(0)--------------------|
--L--7~--L------9b--7b--9p-7------|-----------7b------------------|--------(0)--------------------|
-----------------------------9--x-|--x--x--9------7\--2--3--4--0--|--L----------------------------|


                                          PM PM              PM PM    PM PM                         
  E  E  S S E  E  E  E   E      E  E   E  S  S  E   E   S  S S  S     S  S  E  E   E   E  E  E  E   
-----------------------------|-------------------------------------|-------------------------------|
-----9-----------------------|-------------------------------------|-------------------------------|
-----9--x-x----9-------------|-------------------------------------|-------------------------------|
--------x-x----9-------------|-------------------------------------|-------------------------------|
---------------------9b--9~--|--L--7~--L--------9b--7b--9p-7-------|-----------7b------------------|
--9---------9-----9----------|------------9--x---------------9--x--|--x--x--9------7\--2--3--4--0--|


           |---3--|   |---3--|                                        
  E     E  E   E  E   E   E  E   Q        E  E  S S E  E  E  E   E    
-----------------------------9---------|-----------------------------|
--------------------------9------------|-----9-----------------------|
------------------9--11b--------11~----|-----9--x-x----9-------------|
-----------9--11-----------------------|--------x-x----9-------------|
-----7g11------------------------------|---------------------9b--9~--|
--L------------------------------------|--9---------9-----9----------|


            PM                PM PM    PM PM                         
  E  E   E  S  S E   E   S  S S  S     S  S  E  E   E   E  E  E  E   
------------------------------------|-------------------------------|
------------------------------------|-------------------------------|
------------------------------------|-------------------------------|
------------------------------------|-------------------------------|
--L--7~--L-------9b--7b--9p-7-------|-----------7b------------------|
------------9--9--------------9--9--|--x--x--9------7\--2--3--4--0--|


                                          Verse 1                          
  E  E  E     E  S   S  S  S S   S  E     E       E  S S E  E  E  E   E    
-----0--L------------------------------|----------------------------------|
-----0--L------------------------------|----------9-----------------------|
-----------------9---L--9--9-9---L-----|----------9--x-x----9-------------|
-----------------9h-11-11-11-9---L-----|-------------x-x----9-------------|
-----------7g11--------------9h-11-11--|--------------------------9b--9~--|
--L------------------------------------|--9--------------9-----9----------|


            PM PM                    PM PM                                                 
  E  E   E  S  S  E   E   S  S E     S  S  E  E   E   E  E  E  E     E  E  H        E  E   
----------------------------------|-------------------------------|-----0--L--------L-----|
----------------------------------|-------------------------------|-----0--L--------L-----|
----------------------------------|-------------------------------|-----------------------|
----------------------------------|-------------------------------|-----------------------|
--L--7~--L--------9b--7b--9p-7----|-----------7b------------------|-----------------------|
------------x--x---------------9--|--x--x--9------7\--2--3--4--0--|--L-----------------0--|


                                          PM PM     PM             PM PM                         
  E  E  S S E  E  E  E   E      E  E   E  S  S  E   E   S  S E     S  S  E  E   E   E  E  E  E   
---------------0-------------|----------------------------------|-------------------------------|
-----9---------0-------------|----------------------------------|-------------------------------|
-----9--x-x------------------|----------------------------------|-------------------------------|
--------x-x------------------|----------------------------------|-------------------------------|
---------------------9b--9~--|--L--7~--L--------9b--7b--9p-7----|-----------7b------------------|
--9---------9-----9----------|------------x--x---------------9--|--x--x--9------7\--2--3--4--0--|


                                                           PM          
  S  S  E   S S  S S  E    E    E    E     E  E  S S E  E  E  E   E    
----------------------------------------|-----------------------------|
-------11--11--------12b----------------|-----9-----------------------|
-------11--11-9-11-9------11b--11b------|-----9--x-x----9-------------|
--9-11------------------------------11--|--------x-x----9-------------|
----------------------------------------|---------------------9b--9~--|
----------------------------------------|--9---------9-----9----------|


            PM PM                    PM PM                                               
  E  E   E  S  S  E   E   S  S E     S  S  E  E   E   E  E  E  E     E  E  H.            
----------------------------------|-------------------------------|-----0--L------------|
----------------------------------|-------------------------------|-----0--L------------|
----------------------------------|-------------------------------|-----1--L------------|
----------------------------------|-------------------------------|---------------------|
--L--7~--L--------9b--7b--9p-7----|-----------7b------------------|---------------------|
------------x--x---------------9--|--x--x--9------7\--2--3--4--0--|--L------------------|


                                          PM PM                    PM PM                         
  E  E  S S E  E  E  E   E      E  E   E  S  S  E   E   S  S E     S  S  E  E   E   E  E  E  E   
-----------------------------|----------------------------------|-------------------------------|
-----9-----------------------|----------------------------------|-------------------------------|
--------x-x----9-------------|----------------------------------|-------------------------------|
--------x-x----9-------------|----------------------------------|-------------------------------|
---------------------9b--9~--|--L--7~--L--------9b--7b--9p-7----|-----------7b------------------|
--9---------9-----9----------|------------x--x---------------9--|--x--x--9------7\--2--3--4--0--|


  E  E  E  E   E   E   E  E     E  E  E  E  E  S S E  E     E  E  E  E  E  S S E  E   
-----0--L--------------------|---------------------------|---------------------------|
-----0--L--9~--L-------------|-----------4--L------------|-----------4--L------------|
-----------9~--L-------------|-----------4--L--x-x-------|-----------4--L--x-x-------|
-----------------------------|-----------------x-x-------|-----------------x-x-------|
-----------------------------|-----------4--L------------|-----------4--L------------|
--L---------------12\--2--3--|--4--0---------------2--3--|--4--0---------------2--3--|


  E  E  E  E  E  S S E  E     E  E  S S E   E   S S E  E     E  E  E  E  S S S S E  E   
---------------------------|------------------------------|----------------------------|
-----------4--L------------|------------------------------|-----------4--L-4-----------|
-----------4--L--x-x-------|--------x-x---------x-x-------|-----------4--L-4-x-x-------|
-----------------x-x-------|--------x-x-4b--L\--x-x-------|------------------x-x-------|
-----------4--L------------|------------------------------|-----------4--L-------------|
--4--0---------------2--3--|--4--0------------------2--3--|--4--0----------------2--3--|


  E  E  E  E   E  S S E  E     E  E  E  E  E  S S S S E     E  E  E  E  Q    E  E   
----------------------------|----------------------------|-------------------------|
-----------4~--L------------|--------x--5--L--5-5-5-5-5--|--5--5--5--5--5----------|
-----------4~--L--x-x-------|--------x--4--L--4-4-4-4-4--|--4--4--4--4--4----------|
------------------x-x-------|----------------------------|-------------------------|
-----------4---L------------|-----------4--L--4-4-4-4-4--|--4--4--4--4--4----------|
--4--0----------------2--3--|--4--0----------------------|----------------------9--|


   Chorus 1                                                                        
   Q.      E  E  E     Q        E  E  E  E  Q    Q        Q.     E  E  E     Q     
----------------------------|-------------------------|---------------------------|
-----------9----------------|------9------------------|----------9----------------|
--11-------9--------9g11----|---L--9-----x------------|--11------9--------9g11----|
--11-------9--------9g11----|---L--9-----x------------|--11------9--------9g11----|
----------------------------|-------------------------|---------------------------|
-----------------9----------|---------------9----9----|----------------9----------|


   E  E  E  E  Q    Q        Q.     E  E  E     Q        E  E  E  E  Q    Q     
-------------------------|---------------------------|-------------------------|
------9------------------|----------9----------------|------9------------------|
---L--9-----x------------|--11------9--------9g11----|---L--9-----x------------|
---L--9-----x------------|--11------9--------9g11----|---L--9-----x------------|
-------------------------|---------------------------|-------------------------|
---------------9----9----|----------------9----------|---------------9----9----|


                                                                 Guitar Solo                    
                                                 |----3----|                                    
   Q.     E  E  E     Q        E  E  E  E  Q     E   E  S  S     E           E    H.            
---------------------------|---------------------------------|---------------------------------|
----------9----------------|------9--------------------------|--12-----------L----L------------|
--11------9--------9g11----|---L--9-----x---------------9-11-|--11br---------Lb---L------------|
--11------9--------9g11----|---L--9-----x--------9--11-------|---------------------------------|
---------------------------|---------------------------------|---------------------------------|
----------------9----------|---------------9\----------------|---------------------------------|


   H.            E   E      S    S S  S  S  S S  S S  S  S  S S  S E   
------------------------|---------------------------------------------|
---L-------------L--11--|--11br--L------11----------------------------|
---L-------------L---9--|--11br--L-9----------9-11-9----11----9-------|
------------------------|------------11----11--------11----11---11-9--|
------------------------|---------------------------------------------|
------------------------|---------------------------------------------|


                                                                      |--3-|  |---3---|  
   S  S S S S S S   S E   E   E   E      S  S S  S  S S S S S  S S  S S  S S  S    S  S  
--------------------------------------|-------------------------------------------------|
--------------------------------------|-------------------------------------------------|
--------------------------------------|------------------------------------9-11br--Lp-9-|
--------------------------------------|--------------------------9----9-11--------------|
--11s-9-7---7-9-9s-11-9b--7b----------|-------7h-9~-7---9---7-11---11-------------------|
----------9-------------------9\--4/--|--7h-9---------9---9-----------------------------|


   T  T  S  S  S S  S  S  S S  S S S  Q         Q     Q       S S E  E    E    
----------------------------9----9---12b----|---L-----------------------------|
-----------------------9-12-9------9--------|--------12pbr----9---9-----------|
--11p-9----11----9-11b--------11------------|-------------------9----9br--Lb--|
--------11----11----------------------------|---------------------------------|
--------------------------------------------|---------------------------------|
--------------------------------------------|---------------------------------|


                           Verse 2                                                             
  H        E.  S E   E     E       E  S S E  E  E  E   E      E   E   E   S S E   E   S  S E   
------------------------|----------------------------------|----------------------------------|
------------------------|----------9-----------------------|----------------------------------|
--L--------L---x--------|----------9--x-x----9-------------|----------------------------------|
------------------------|-------------x-x----9-------------|----------------------------------|
------------------------|--------------------------9b--9~--|--L~--7~--L~--7-7-9b--7b--9p-7----|
-----------------9\--0--|--9--------------9-----9----------|-------------------------------9--|


  S S E  E   E   E  E  E  E     E  E  H.              E  E  S S E  E  E  E   E    
-----------------------------|-----0--L------------|-----------------------------|
-----------------------------|-----0--L------------|-----9-----------------------|
-----------------------------|-----1--L------------|-----9--x-x----9-------------|
-----------------------------|---------------------|--------x-x----9-------------|
---------7b------------------|---------------------|---------------------9b--9~--|
--x-x-9------7\--2--3--4--0--|--L------------------|--9---------9-----9----------|


  E   E   Q     E   E   S  S E     S S E  E   E   E  E  E  E   
--------------------------------|-----------------------------|
--------------------------------|-----------------------------|
--------------------------------|-----------------------------|
--------------------------------|-----------------------------|
--L~--7~--L~----9b--7b--9p-7----|---------7b------------------|
-----------------------------9--|--x-x-9------7\--2--3--4--0--|


  S  S  E   S S  S S  E    S  S  S  S  E     E  E  E  E  E  E  E   E    
----11-11--11-----------------------------|----------------------------|
----11-11--11--------11b------------------|-----9----------------------|
----11-11--11-9----9-11b--11p-9-11p-9-----|-----9--------9-------------|
--------------9----9------------------11--|--------------9-------------|
----------------11------------------------|--------------------9b--9~--|
--L---------------------------------------|--9--------9-----9----------|


  E   E   Q     E   E   S  S E     S S E  E   E   E  E  E  E     E  E  H.            
--------------------------------|-----------------------------|-----0--L------------|
--------------------------------|-----------------------------|-----0--L------------|
--------------------------------|-----------------------------|-----1--L------------|
--------------------------------|-----------------------------|---------------------|
--L~--7~--L~----9b--7b--9p-7----|---------7b------------------|---------------------|
-----------------------------9--|--x-x-9------7\--2--3--4--0--|--L------------------|


  E  E  E  E  E  E  E   E      E   E   Q     E   E   S  S E     S S E  E   E   E  E  E  E   
----------------------------|--------------------------------|-----------------------------|
-----9----------------------|--------------------------------|-----------------------------|
--------------9-------------|--------------------------------|-----------------------------|
--------------9-------------|--------------------------------|-----------------------------|
--------------------9b--9~--|--L~--7~--L~----9b--7b--9p-7----|---------7b------------------|
--9--------9-----9----------|-----------------------------9--|--x-x-9------7\--2--3--4--0--|


  Q.      E   Q     E  E     E  E  E  E  E  S S E  E     E  E  E  E  E  S S E  E   
--------------------------|---------------------------|---------------------------|
---------12---L\----------|-----------4--L------------|-----------4--L------------|
---------12---L\----------|-----------4--L--x-x-------|-----------4--L--x-x-------|
--------------------------|-----------------x-x-------|-----------------x-x-------|
--------------------------|-----------4--L------------|-----------4--L------------|
--L-----------------2--3--|--4--0---------------2--3--|--4--0---------------2--3--|


  E  E  E  E  E  S S E  E     E  E  E  E  E  E  E  E     E  E  E  E  E  S S E  E   
---------------------------|--------------------------|---------------------------|
-----------4--L------------|--------------------------|-----------4--L------------|
-----------4--L--x-x-------|--------------------------|-----------4--L--x-x-------|
-----------------x-x-------|--------------------------|-----------------x-x-------|
-----------4--L------------|--x--x--x--x--x--x--------|-----------4--L------------|
--4--0---------------x--x--|--x--x--x--x--x--x--2--3--|--4--0---------------2--3--|


  E  E  E  E  E  S S E  E     E  E  E  E  E  E  E  E     E  E  E  E  Q    E  E   
---------------------------|--------------------------|-------------------------|
-----------4--L------------|-----------5--L--5--5--5--|--5--5--5--5--5----------|
-----------4--L--x-x-------|-----------4--L--4--4--4--|--4--4--4--4--4----------|
-----------------x-x-------|--------------------------|-------------------------|
-----------4--L------------|-----------4--L--4--4--4--|--4--4--4--4--4----------|
--4--0---------------2--3--|--4--0--------------------|----------------------9--|


   Chorus 2                                                                        
   Q.      E  E  E     Q        E  E  E  E  Q    Q        Q.     E  E  E     Q     
----------------------------|-------------------------|---------------------------|
-----------9----------------|------9------------------|----------9----------------|
--11-------9--------9g11----|---L--9-----x------------|--11------9--------9g11----|
--11-------9--------9g11----|---L--9-----x------------|--11------9--------9g11----|
----------------------------|-------------------------|---------------------------|
-----------------9----------|---------------9----9----|----------------9----------|


   E  E  E  E  Q    Q        Q.     E  E  E     Q        E  E  E  E  Q    Q     
-------------------------|---------------------------|-------------------------|
------9------------------|----------9----------------|------9------------------|
---L--9-----x------------|--11------9--------9g11----|---L--9-----x------------|
---L--9-----x------------|--11------9--------9g11----|---L--9-----x------------|
-------------------------|---------------------------|-------------------------|
---------------9----9----|----------------9----------|---------------9----9----|


   Q.     E  E  E     Q        E  E  E  S S  Q     E  E     E  E  E  E  E  S S E  E   
---------------------------|----------------14\----------|---------------------------|
----------9----------------|------9---------14\----------|-----------4--L------------|
--11------9--------9g11----|---L--9-----x-x--------------|-----------4--L--x-x-------|
--11------9--------9g11----|---L--9-----x-x--------------|-----------------x-x-------|
---------------------------|-----------------------------|-----------4--L------------|
----------------9----------|-----------------------2--3--|--4--0---------------2--3--|


  E  E  E  E  E  S S E  E     E  E  E  E  E  S S E  E     E  E  E  E  E  S S E  E   
---------------------------|---------------------------|---------------------------|
-----------4--L------------|-----------4--L------------|-----------4--L------------|
-----------4--L--x-x-------|-----------4--L--x-x-------|-----------4--L--x-x-------|
-----------------x-x-------|-----------------x-x-------|-----------------x-x-------|
-----------4--L------------|-----------4--L------------|-----------4--L------------|
--4--0---------------2--3--|--4--0---------------2--3--|--4--0---------------2--3--|


  E  E  E  E  E  S S E  E     E  E  E  E  E  S S E  E     E  E  S  S S S   E  E  S  S S S  
---------------------------|---------------------------|----------------------------------|
-----------4--L------------|-----------4--L------------|----------------------------------|
-----------4--L--x-x-------|-----------4--L--x-x-------|----------------------4--6p-4-----|
-----------------x-x-------|-----------------x-x-------|-----4--4p-2-----4g6----------6-4-|
-----------4--L------------|-----------4--L------2--3--|--4----------4-2------------------|
--4--0---------------2--3--|--4--0---------------------|----------------------------------|


                                   Bridge                                                     
  E   E   S  S E  S  S E  E  E     W                   W                    W                 
--------------------------------|-------------------|-------------------|--------------------|
--------------------------------|--4----------------|--L----------------|--------------------|
--4~--4b------------------------|--4----------------|--L----------------|---9----------------|
----------6s-4-2--4p-2----------|-------------------|-------------------|---9----------------|
-----------------------4--2--3--|--4----------------|--L----------------|--11----------------|
--------------------------------|-------------------|-------------------|--------------------|


   H.            E   E        Q.     E  E   E     Q        H.            E   E   
------------------------|------------------------------|------------------------|
------------------------|------------------------------|------------------------|
---L-------------L------|--9g11------9--L---------9----|---L-------------L------|
---L-------------L------|-----9----------------9g11----|---L-------------L------|
---L-------------L--11--|----11------------11----11----|---L-------------L--11--|
------------------------|------------------------------|------------------------|


     Q.     E  E   E  Q       H.           E   E     Q.        E  E  E  Q       W                 
---------------------------|----------------------|--------------------------|-------------------|
---------------------------|----------------------|--------------------------|-------------------|
-----9------9--L------9----|--L------------L------|--9-----------------------|-------------------|
--9g11------9--L------9----|--L------------L------|--9-----------------------|-------------------|
------------------11-------|------------------11--|---------11g9--L--7-------|-------------------|
---------------------------|----------------------|---------------------9----|--L----------------|


   Chorus 3                                                                        
   Q.      E  E  E     Q        E  E  E  E  Q    Q        Q.     E  E  E     Q     
----------------------------|-------------------------|---------------------------|
-----------9----------------|------9------------------|----------9----------------|
--11-------9--------9g11----|---L--9-----x------------|--11------9--------9g11----|
--11-------9--------9g11----|---L--9-----x------------|--11------9--------9g11----|
----------------------------|-------------------------|---------------------------|
-----------------9----------|---------------9----9----|----------------9----------|


   E  E  E  E  Q    Q        Q.     E  E  E     Q        E  E  E  E  Q    Q     
-------------------------|---------------------------|-------------------------|
------9------------------|----------9----------------|------9------------------|
---L--9-----x------------|--11------9--------9g11----|---L--9-----x------------|
---L--9-----x------------|--11------9--------9g11----|---L--9-----x------------|
-------------------------|---------------------------|-------------------------|
---------------9----9----|----------------9----------|---------------9----9----|


   Q.     E  E  E     Q        E  E  E  E  Q    Q        Q.     E  E  E     Q     
---------------------------|-------------------------|---------------------------|
----------9----------------|------9------------------|----------9----------------|
--11------9--------9g11----|---L--9-----x------------|--11------9--------9g11----|
--11------9--------9g11----|---L--9-----x------------|--11------9--------9g11----|
---------------------------|-------------------------|---------------------------|
----------------9----------|---------------9----9----|----------------9----------|


   E  E  E  E  Q    Q        Q.     E  E  E     Q        E  E  E  E  Q    Q     
-------------------------|---------------------------|-------------------------|
------9------------------|----------9----------------|------9------------------|
---L--9-----x------------|--11------9--------9g11----|---L--9-----x------------|
---L--9-----x------------|--11------9--------9g11----|---L--9-----x------------|
-------------------------|---------------------------|-------------------------|
---------------9----9----|----------------9----------|---------------9----9----|


   Q.     E  E  E     Q        E  E  E  E  Q    Q        Q.     E  E  E     Q     
---------------------------|-------------------------|---------------------------|
----------9----------------|------9------------------|----------9----------------|
--11------9--------9g11----|---L--9-----x------------|--11------9--------9g11----|
--11------9--------9g11----|---L--9-----x------------|--11------9--------9g11----|
---------------------------|-------------------------|---------------------------|
----------------9----------|---------------9----9----|----------------9----------|


                            Outro                                                           
   E  E  E  E  Q    Q       E     E  S S E  E  E  E   E      E   E   Q     E   E   S  S E   
-------------------------|--------------------------------|--------------------------------|
------9------------------|--------9-----------------------|--------------------------------|
---L--9-----x------------|--------9--x-x----9-------------|--------------------------------|
---L--9-----x------------|-----------x-x----9-------------|--------------------------------|
-------------------------|------------------------9b--9~--|--L~--7~--L~----9b--7b--9p-7----|
---------------9----9----|--9------------9-----9----------|-----------------------------9--|


  S S E  E   E   E  E  E  E     E  E  H.              E  E  S S E  E  E  E   E    
-----------------------------|-----0--L------------|-----------------------------|
-----------------------------|-----0--L------------|-----9-----------------------|
-----------------------------|-----1--L------------|-----9--x-x----9-------------|
-----------------------------|---------------------|--------x-x----9-------------|
---------7\------------------|---------------------|---------------------9b--9~--|
--x-x-9------7\--2--3--4--0--|--L------------------|--9---------9-----9----------|


  E   E   Q     E   E   S  S E     E  E  E   E   E  E  E  E     E  E  H        E  E   
--------------------------------|----------------------------|-----0--L--------L-----|
--------------------------------|----------------------------|-----0--L--------L-----|
--------------------------------|----------------------------|-----1--L--------L-----|
--------------------------------|----------------------------|-----------------------|
--L~--7~--L~----9b--7b--9p-7----|--------7\------------------|-----------------------|
-----------------------------9--|--x--9------7\--2--3--4--0--|--L-----------------0--|


  E  E  E  E  E  E  E   E      E   E   Q     E   E   S  S E     S S E  E   E   E  E  E  E   
----------------------------|--------------------------------|-----------------------------|
-----9----------------------|--------------------------------|-----------------------------|
-----9--x--x--9-------------|--------------------------------|-----------------------------|
--------x--x--9-------------|--------------------------------|-----------------------------|
--------------------9b--9~--|--L~--7~--L~----9b--7b--9p-7----|---------7\------------------|
--9--------------9----------|-----------------------------9--|--x-x-9------7\--2--3--4--0--|


     |--3--|      |--3--|      |--3--|                                          
  E  S  S  S  E   S  S  S  E   S  S  S  E     E      E  E  E  E  E  E  E   E    
-----9------------9------------9-------12br---Lb--|----------------------------|
-------12p-9-12b----12p-9--------12p-9------------|-----9----------------------|
--------------------------11b---------------------|-----9--x-----9-------------|
--------------------------------------------------|--------x-----9-------------|
--------------------------------------------------|--------------------9b--9~--|
--L-----------------------------------------------|--9--------9-----9----------|


  E   E   Q     E   E   S  S E     S S E  E   E   E  E  E  E     E  E  H.            
--------------------------------|-----------------------------|-----0--L------------|
--------------------------------|-----------------------------|-----0--L------------|
--------------------------------|-----------------------------|-----1--L------------|
--------------------------------|-----------------------------|---------------------|
--L~--7~--L~----9b--7b--9p-7----|---------7\------------------|---------------------|
-----------------------------9--|--x-x-9------7\--2--3--4--0--|--L------------------|


  E  E  S S E  E  E  E   E      E   E   E   S S E   E   S  S E     S S E  E   E   E  E  E  E   
-----------------------------|----------------------------------|-----------------------------|
-----9-----------------------|----------------------------------|-----------------------------|
--------x------9-------------|----------------------------------|-----------------------------|
--------x------9-------------|----------------------------------|-----------------------------|
---------------------9b--9~--|--L~--7~--L~--x-x-9b--7b--9p-7----|---------7\------------------|
--9-------9-9-----9----------|-------------------------------9--|--x-x-9------7\--2--3--4--0--|


  E  E  H.              E  E  S S E  E  E  E   E      E   E   E   S S E   E   S  S E   
-----0--L------------|-----------------------------|----------------------------------|
-----0--L------------|-----9-----------------------|----------------------------------|
-----1--L------------|--------x-x----9-------------|----------------------------------|
---------------------|--------x-x----9-------------|----------------------------------|
---------------------|---------------------9b--9~--|--L~--7~--L~--x-x-9b--7b--9p-7----|
--L------------------|--9---------9-----9----------|-------------------------------9--|


  S S E  E   E   E  E  E  E     E  E  Q    Q    E  S S    E  S S E  E  S S S S S S E   
-----------------------------|-----0--L----0-----------|------------------------------|
-----------------------------|-----0--L----0-----------|--9------9--9-----------------|
-----------------------------|-----1--L----1-----------|------------------------------|
-----------------------------|-------------------------|------------------------------|
---------7\------------------|-------------------------|------------------------------|
--x-x-9------7\--2--3--4--0--|--L---------------0--0-x-|-----x-x-------x-x-x-x-x-x-9--|


  E  S S E  E  S S S S S S S S    E  S S E  E  S S S S S S S S    E  S S E  E  S S S S S S S S  
-------------------------------|-------------------------------|-------------------------------|
--9------9--9------------------|--9------9--9------------------|--9------9--9------------------|
-------------------------------|-------------------------------|-------------------------------|
-------------------------------|-------------------------------|-------------------------------|
-------------------------------|-------------------------------|-------------------------------|
-----x-x-------x-x-x-x-x-x-9-9-|-----x-x-------x-x-x-x-x-x-9-9-|-----x-x-------x-x-x-x-9-x-9-9-|


  E  S S E  E  S S S S S S E     E  S S E  E  S S S S S S S S    E  S S E  E  S S S S S S S S  
------------------------------|-------------------------------|-------------------------------|
--9------9--9-----------------|--9------9--9------------------|--9------9--9------------------|
------------------------------|-------------------------------|-------------------------------|
------------------------------|-------------------------------|-------------------------------|
------------------------------|-------------------------------|-------------------------------|
-----x-x-------x-x-x-x-x-x-9--|-----x-x-------x-x-x-x-x-x-9-9-|-----x-x-------x-x-x-x-x-x-9-9-|


  E  S S E  E  S S S S S S S S   
-------------------------------||
--9------9--9------------------||
-------------------------------||
-------------------------------||
-------------------------------||
-----x-x-------x-x-x-x-9-x-9-9-||




Duration Legend
---------------
W - whole
H - half
Q - quarter
E - 8th
S - 16th
T - 32nd
X - 64th
. - note dotted
|-n-|  - n-tuplets


Tablature Legend
----------------
L - tied note
x - dead note
g - grace note
(n) - ghost note
> - accentuded note
NH - natural harmonic
AH - artificial harmonic
TH - tapped harmonic
SH - semi harmonic
PH - pitch harmonic
h - hammer on
p - pull off
b - bend
br - bendRelease
pb - preBend
pbr - preBendRelease
brb - bendReleaseBend
\n/ - tremolo bar dip
\n - tremolo bar dive
-/n - tremolo bar Release up
/n\ - tremolo bar inverted dip
/n - tremolo bar return
-\n - tremolo bar Release down
S - shift slide
s - legato slide
/ -  slide into from below or out of upwards
\ -  slide into from above or out of downwards
~ - vibrato
W - wide vibrato
tr - trill
TP - tremolo picking
T - tapping
S - slap
P - pop
< - fade in
^ - brush up
v - brush down
Добавлено: 19.03.2012
Другие материалы по этой песне:

Страница создана 10.03.2012
http://primanota.ru/cry-of-love/highway-jones-chords.htm
Привет, Гость.
Предлагаем пройти революционный курс по гитаре.
Подарок от PrimaNota.Ru, забирай!