PrimaNota.ru - самый крупный в мире бесплатный архив песенных текстов, аккордов, табулатур и нот


Crvena Jabuka - Tugo Nesreco - аккорды и текст, видео

Регистрация Запомнить меня
Войти через:  Facebook Google Twitter Vk Yandex Mail.ru

Crvena Jabuka - Tugo Nesreco - аккорды и текст, видео

Печатать
Просмотров: 151
Tugo Nesreco
Crvena Jabuka
Crvena Jabuka - Tugo Nesreco

Gm          Cm          Gm
Ona dolazi, jednostavno osjetim,
Eb              D         Gm
mozda mi sapne, snijeg sa grane,
Gm              Cm       Gm      
sta mi donosi - kusur od ljubavi 
Eb            D       Gm
il malo srece minulih dana

Eb               D
ne znam kako, al znam, ona dolazi.

Kad suze govore, istina razvaljuje,
i svaka rijec, me obori s nogu
to sto si varala, to bih ti oprostio,
al sto si mene, to ne mogu.

Cm Gm  Eb   F    Bb 
Tu_go, tugo nesreco,         2x
       Cm Gm   Eb   D  Gm    
nikoga ni_sam, tako volio.

SOLO:
|--------------------------------|-------------------------------------------|
|-------------8------------------|---------------8---------------------------|
|--------5--7--7----5--7-5-------|--------5--77---7--5/7\5--8-8---5/7\5--7-7-|
|--5-7-8--------------------8-7--|--5-7-8------------------------------------|
|--------------------------------|-------------------------------------------|
|--------------------------------|-------------------------------------------|

|----------------|
|----------------|
|----------------|
|--7/8\7--5-3-5--|
|----------------|
|----------------|

Kad suze govore, istina razvaljuje,
i svaka rijec, me obori s nogu
to sto si varala, to bih ti oprostio,
al sto si mene, to ne mogu.

//I don't take credit for this tab//
Добавлено: 26.07.2012
Другие материалы по этой песне:

Страница создана 26.07.2012
http://primanota.ru/crvena-jabuka/tugo-nesreco-chords.htm
Привет, Гость.
Предлагаем пройти революционный курс по гитаре.
Подарок от PrimaNota.Ru, забирай!