PrimaNota.ru - самый крупный в мире бесплатный архив песенных текстов, аккордов, табулатур и нот


Crvena Jabuka - Dirlija - аккорды и текст, видео

Регистрация Запомнить меня
Войти через:  Facebook Google Twitter Vk Yandex Mail.ru

Crvena Jabuka - Dirlija - аккорды и текст, видео

Печатать
Просмотров: 115
Dirlija
Crvena Jabuka
Em                       Am   B     Em
Na stolu su prazne case, raki-ja se popila
Em                           Am    B      Em   Am Em Am
Gdje li nam se jutros budis, ko te snenog pokriva
Ovdje je bas sve po starom, znas kad sica natjera
Da pazimo, razvlacimo sve do prvoga


Am          Em       D         Em
Sjetimo se onda tebe u toplim nocima
Am          Em        D           Em   Am   Em
Kada stari svirac onu tvoju zasvira    i pjeva


REF:
Em                  Am    B     Em
Dirli dirli dirlija nemoj dizat graju
Em               Am   B     Em
Para ima hadzija i za sitnu raju.
poslije:Am Em Am Em


Tvoje lice gledamo samo na slikama
Daj navrati bar na tren, popij jednu s nama

Sjetis li se i ti nas u toplim nocima
Kada stari svirac onu tvoju zasvira i pjeva

Intro: 

E||-------------------------------------------------------------|
B||-------------------------------------------------------------|
G||-------------------------------------------------------------|
D||-----5--5--5-5-5-5-4-5-7-5---4--4--5--4-----------4-5-4-5-7--|
A||--7-------------------------------------7-7-7-5-7------------|
E||-------------------------------------------------------------|
                                                                           
E||-------------------------------------------------------------|
B||-------------------------------------------------------------|
G||-----7--7--7--7--5--4----------------------------------------|
D||------------------------7--7--5--4------9--7--5-5-5-4-5-7----|
A||--7---------------------------------7---9--7--------------7--|
E||-------------------------------------------------------------|
Добавлено: 17.07.2012
Другие материалы по этой песне:

Страница создана 25.05.2012
http://primanota.ru/crvena-jabuka/dirlija-chords.htm
Привет, Гость.
Предлагаем пройти революционный курс по гитаре.
Подарок от PrimaNota.Ru, забирай!