PrimaNota.ru - самый крупный в мире бесплатный архив песенных текстов, аккордов, табулатур и нот


Crush On You - Nobody But The Hmong - аккорды и текст, видео

Регистрация Запомнить меня
Войти через:  Facebook Google Twitter Vk Yandex Mail.ru

Crush On You - Nobody But The Hmong - аккорды и текст, видео

Печатать
Просмотров: 74
Nobody But The Hmong
Crush On You
Tabbed by Postman

Song: Nobody But The Hmong
Artist: Crush On You
Music: AJ Posegate
Words: AJ Posegate & AM Rydberg

Strong punk beat

Intro: x4
  E          A 
  1  2 &  3 & 4 &
E-------------------------------
B---------2-2-2-----------------
G-1--1-1--2-2-2-1---------------
D-2--2-2--2-2-2-2---4-2-0-------
A-2--2-2--0-0-0-2---------2-0---
E-0--0-0--------0---------------

E-------------------------------
B---------2-2-2-----------------
G-1--1-1--2-2-2-1---------------
D-2--2-2--2-2-2-2---4-2-0-2-4---
A-2--2-2--0-0-0-2--------------
E-0--0-0--------0---------------


    E      A       E
E--------------------------------
B---------2-2-2----------2-2-2-2-
G-1--1-1--2-2-2--1--1-1--2-2-2-2-
D-2--2-2--2-2-2--2--2-2--2-2-2-2-
A-2--2-2--0-0-0--2--2-2--0-0-0-0-
E-0--0-0---------0--0-0----------
   Nobody but the Hmong
                             x2
   E       A       B      A
E--------------------------------
B---------2-2-2--4--4-4--2-2-2-2-
G-1--1-1--2-2-2--4--4-4--2-2-2-2-
D-2--2-2--2-2-2--4--4-4--2-2-2-2-
A-2--2-2--0-0-0--2--2-2--0-0-0-0-
E-0--0-0-------------------------
   Nobody but the Hmong but the Hmong

E--------------------------------
B--------------------------------
G-1--1-1--1-1-1--1--1-1--1-1-1-1-
D-2--2-2--2-2-2--2--2-2--2-2-2-2-
A-2--2-2--2-2-2--2--2-2--2-2-2-2-
E-0--0-0--0-0-0--0--0-0--0-0-0-0-
  but YOU!!!!!!!!!

The rest is the same, pretty much,
except the words to the verse
"But the Hmong But YOU!" instead
of "Nobody but the Hmong" etc. And
the second part... couldn't figure it out
     
Добавлено: 21.11.2013
Другие материалы по этой песне:
  • Аккорды и текст

Страница создана 17.09.2013
http://primanota.ru/crush-on-you/nobody-but-the-hmong-chords.htm
Привет, Гость.
Предлагаем пройти революционный курс по гитаре.
Подарок от PrimaNota.Ru, забирай!