PrimaNota.ru - самый крупный в мире бесплатный архив песенных текстов, аккордов, табулатур и нот


Crush 40 - Through The Fire - текст песни, таба, видео

Регистрация Запомнить меня
Войти через:  Facebook Google Twitter Vk Yandex Mail.ru

Crush 40 - Through The Fire - текст песни, таба, видео

Печатать
Просмотров: 185
Through the Fire by Crush 40
Tabbed by Baka94

/ - Slide
L - Tied Note
* - Palm Mute
x - Dead Note

Please note any mistakes/corrections in the tab at baka.ninetyfour@gmail.com

Tempo: 168 BPM
Tuning: DADGBe


   1   * *     *    * * * * *            * *     *    * * * * *
e||----------------|----------------|----------------|----------------|
B||----------------|----------------|----------------|----------------|
G||----------------|----------------|----------------|----------------|
D||----------------|------------5---|----------------|------------5---|
A||0---0-0-0---0-0-|0-0-0-0-0---3---|0---0-0-0---0-0-|0-0-0-0-0---3---|
D||0---0-0-0---0-0-|0-0-0-0-0-------|0---0-0-0---0-0-|0-0-0-0-0-------|

   5   * *     *    * * * * *            * *
e||----------------|----------------|----------------|----------------|
B||----------------|----------------|----------------|----------------|
G||----------------|----------------|----------------|----------------|
D||----------------|------------5---|--------2-5---7-|L-------5-5---3-|
A||0---0-0-0---0-0-|0-0-0-0-0---3---|0---0-0-0-3---5-|L-------3-3---1-|
D||0---0-0-0---0-0-|0-0-0-0-0-------|0---0-0---------|----------------|

   9
e||----------------|----------------|----------------|----------------|
B||----------------|----------------|----------------|----------------|
G||----------------|----------------|----------------|----------------|
D||L-------------5-|L---------------|----------------|7-7---5---5-----|
A||L-------------3-|L-------------3-|L---------------|5-5---3---3---5-|
D||----------------|--------------3-|L---------------|--------------5-|

   13
e||----------------|----------------|----------------|----------------|
B||----------------|----------------|----------------|----------------|
G||----------------|----------------|----------------|----------------|
D||----------------|1-----5---5---7-|L---7-7-6-x-x-5-|L-----3---3---3-|
A||L---------------|1-----3---3---5-|L---5-5-4-x-x-3-|L-----1---1---1-|
D||L---------------|----------------|----------------|----------------|

   17
e||----------------|----------------|----------------|----------------|
B||----------------|----------------|----------------|----------------|
G||----------------|----------------|----------------|----------------|
D||L---------------|----------------|--------3-------|L---------7/--3-|
A||L-------------5-|L-------------3-|L-------1-------|L---------5/--1-|
D||--------------5-|L-------------3-|L---------------|----------------|

   21
e||----------------|----------------|----------------|----------------|
B||----------------|----------------|----------------|----------------|
G||----------------|----------------|----------------|----------------|
D||L---------------|----------------|----------------|----------------|
A||L---------------|3-----5---5---7-|L-7-7-6-6-6---7-|L-7-10/-3-3-5-7-|
D||----------------|3-----5---5---7-|L-7-7-6-6-6---7-|L-7-10/-3-3-5-7-|

   25
e||----------------|----------------|
B||----------------|----------------|
G||----------------|----------------|
D||----------------|------7-7-7-7-7-|
A||L-7-7-7-6-6-6-7-|L-7-7-5-5-5-5-5-|
D||L-7-7-7-6-6-6-7-|L-7-7-----------|

That's all, just repeat from beginning as many times as you want :)
Добавлено: 16.06.2013
Другие материалы по этой песне:
  • Аккорды и текст

Страница создана 16.06.2013
http://primanota.ru/crush-40/through-the-fire-chords.htm
Привет, Гость.
Предлагаем пройти революционный курс по гитаре.
Подарок от PrimaNota.Ru, забирай!