PrimaNota.ru - самый крупный в мире бесплатный архив песенных текстов, аккордов, табулатур и нот


Crush 40 - Sonics Return - таба, видео

Регистрация Запомнить меня
Войти через:  Facebook Google Twitter Vk Yandex Mail.ru

Crush 40 - Sonics Return - таба, видео

Печатать
Просмотров: 140
Artist: Crush 40
Title: System Screen'2 
(This plays during SA2 Battle, during which Sonic returns from
his promised demise in the space capsule)

some of the pull offs and hammer-ons may
not be 100% but i'd say it's decent
so here it is, enjoy, and again, please 
add any corrections if u feel the need

p = pull off
h = hammer-on
~ = bend note
/\= slide

Standard Tuning (EADBGe)  

Intro  (slight distortion)

Guitar 1

e|---------------------------------|
B|---------------------------------|
G|-----5-7--5-7----5-7--------5-7--|
D|5/7--5-7--5-7----5-7---5/7--5-7--|
A|5/7--3-5--3-5----3-5---5/7--3-5--|
E|3/5--------------------3/5-------| (x2)

Guitar 2  (after guit.1)

e|----19--15~~(slide up)|
B|-17-------------------|
G|----------------------|

Chorus

Guitar 1
G|----------------------------------------------|
D|----2--2h4p2----2-2h4/7-----2h4-1/2-4-2\1h2---|
A|2-2--2-------0-0-0------2-2--2----------------|
E|----------------------------------------------| (x2)

Guitar 2
                                 (x2)  (after)  
e|-----------------------------------|----------------------------------------|
B|-17p16-17p16-17p16--16h17-19-17-16-|-10p9-10-12--10p9-10-12--10p9-9\7-7-5\4-|
G|-----------------------------------|----------------------------------------|
D|-----------------------------------|----------------------------------------|
A|-----------------------------------|----------------------------------------|
E|-----------------------------------|----------------------------------------|


Back To Start! 

Of course all together it sounds good with a band, so figure the timing and 
rhythm, and it'll sound perfect :)
Добавлено: 17.06.2012
Другие материалы по этой песне:
  • Аккорды и текст

Страница создана 17.06.2012
http://primanota.ru/crush-40/sonics-return-chords.htm
Привет, Гость.
Предлагаем пройти революционный курс по гитаре.
Подарок от PrimaNota.Ru, забирай!