PrimaNota.ru - самый крупный в мире бесплатный архив песенных текстов, аккордов, табулатур и нот


Crush 40 - Chosen One - текст песни, таба, видео

Регистрация Запомнить меня
Войти через:  Facebook Google Twitter Vk Yandex Mail.ru

Crush 40 - Chosen One - текст песни, таба, видео

Печатать
Просмотров: 169
Hey guys!

Below is the tab, that i managed to discover. It sounds accurate to me, though 
there might be a chord or two that might need adjusting.

Over all, its a pretty easy song. After playin it 3 times, i learned it by heart!! 
=]
Oh and by the way ... I was the first one to tab this song. I search through 35 
pages of google results and no-one had ever tabbed it before.
Other guys just steal it to take credit!!

=======
 Key:
=======

x(y) = bend x into y
x* = let x ring
x/y = slide from x to y
xhy = hammer y onto x
xpy = pull off x from y
PM = start Palm Mute
-- = palm mute
-| = stop palm mute



=================
 Intro (Part 1):
=================

e|-----|
B|-----|
G|-----| X 4
D|-----|
A|---9-|
E|-7---|



==================
 Intro (Part 2):
==================

e|----------------|
B|----------------|
G|-8-6-------6(8)-|          ( if you cant get the bend right, use a hammer on. [ 6h8 ] )
D|-----8---8------| X 2
A|----------------|
E|----------------|



========
 Verse:
========

e|-----|
B|-----|
G|-----|
D|-----|
A|---9-|
E|-7---|

Repeat for entire verse
then end the verse on:

e|---|
B|---|
G|---|
D|---|
A|---|
E|-7-|



=========
 Chorus:
=========

( i could only figure out the chords - for the background notes, i might post a 
version 2 with them included. )

Bm
Wish i may
F#
wish i might
Dm
Be someone else tonight
Am
Sometimes i wish i was never born at all

Bm
Now i try to save the world
F#                 Dm
Cause in the end i know
Em                  F#
     I'm the chosen one


Do this part after the first chorus only:

e|----------------|
B|----------------|
G|-8-6-------6(8)-|           ( if you cant get the bend right, use a hammer on. [ 6h8 ] )
D|-----8---8------| X 2
A|----------------|
E|----------------|



===============
 Ending Solo:
===============

e|----------------------------------------------------|
B|-7*---777-------------------------------------------|
G|----------88-66---------6-----6---------------------|
D|----------------88--6-8---8-8---8--666-6------------| 
A|-----------------------------------------9*---------|
E|----------------------------------------------------|

e|------------|
B|-7---7---9--|
G|---6--------| X2
D|------------|
A|------------|
E|------------|

e|------------6*-|
B|-7-6-7---9-----|
G|---------------| 
D|---------------|
A|---------------|
E|---------------|

e|------------------------------------------------------------|
B|-19*---19-21-19-18-19*---19-21-19-18-19*---19-21-19---------|
G|----------------------------------------------------18-20*--| 
D|------------------------------------------------------------| X2
A|------------------------------------------------------------|
E|------------------------------------------------------------|


So that's the entire song.
Its an easy and fun one, so enjoy!
Rohiaw
migipigi@hotmail.com ( feel free to contact me )

And remember ... i tabbed it first!!
Добавлено: 12.05.2012
Другие материалы по этой песне:
  • Аккорды и текст

Страница создана 12.05.2012
http://primanota.ru/crush-40/chosen-one-chords.htm
Привет, Гость.
Предлагаем пройти революционный курс по гитаре.
Подарок от PrimaNota.Ru, забирай!