PrimaNota.ru - самый крупный в мире бесплатный архив песенных текстов, аккордов, табулатур и нот


Crusaders - Put It Where You Want It - таба, бас-таба, видео

Регистрация Запомнить меня
Войти через:  Facebook Google Twitter Vk Yandex Mail.ru

Crusaders - Put It Where You Want It - таба, бас-таба, видео

Печатать
Просмотров: 99
PUT IT WHERE YOU WANT IT

As recorded by The Crusaders
(From the 1972 Album 1)

Music by Joe Sample

Transcribed by Slowhand


Gtr I (E A D G B E) - 'Electric Guitar'
Gtr II (E A D G B E) - 'Electric Guitar'
Gtr III (E A D G B E) - 'Electric Piano'
Gtr IV (E A D G B E) - 'Horns'


  Q=131
                     $
  N.C.                   C
 4/4
  Gtr I              Gtr I
  W                        E    E E E E  Q         E
|--------------------||---------8---8-------------11b12==|
|--------------------||o--10b11---------11b11.5----------|
|--------------------||----------------------------------|
|--------------------||----------------------------------|
|--------------------||o---------------------------------|
|--------------------||----------------------------------|
|
| Gtr II
| W                        E    E E E E  E      E  E
|--------------------||----------------------------------|
|--------------------||o---x------x---x---------x--------|
|--------------------||----x----5-x-5-x--5------x--5-----|
|--------------------||----x----5-x-5-x--5------x--5-----|
|--------------------||o---x------x---x---------x--------|
|--------------------||----------------------------------|
|
| Gtr III
| Q   E E E  E  E  E      +Q      Q   H
|--------------------||----------------------------------|
|--------------------||o---------------------------------|
|-----9-8-5----------||----------------------------------|
|------------8--9-10-||--(10)----------------------------|
|----10-9-8----------||o---------------------------------|
|-----------10-10-12-||--(12)----------------------------|


   +E    Q.         +Q     Q     E    E E  E  +E  Q      E
|-(11)r------------------------|--------------------------------|
|-------11b13======(11)r-------|------------------------11b13===|
|------------------------------|-8b9-10---10-(10)-8b9-----------|
|------------------------------|--------------------------------|
|------------------------------|--------------------------------|
|------------------------------|--------------------------------|
|
|   E    E     E E   E   E E E   E    E E  E   E  E   E  E
|------------------------------|--------------------------------|
|---x----------x-----x-----x---|-x------x------x------x---------|
|---x----5-----x-5---x---5-x-5-|-x----5-x--5---x--5---x--5------|
|---x----5-----x-5---x---5-x-5-|-x----5-x--5---x--5---x--5------|
|---x----------x-----x-----x---|-x------x------x------x---------|
|------------------------------|--------------------------------|
|
|   W                            W
|------------------------------|--------------------------------|
|------------------------------|--------------------------------|
|------------------------------|--------------------------------|
|------------------------------|--------------------------------|
|------------------------------|--------------------------------|
|------------------------------|--------------------------------|


   +W                    E E E E E  Q         E
|---------------------|----8---8-------------11b12==|
|-(11)r---------------|-11---------11b11.5----------|
|---------------------|-----------------------------|
|---------------------|-----------------------------|
|---------------------|-----------------------------|
|---------------------|-----------------------------|
|
|   E   E E E E E E E    E E E E E  E      E  E
|---------------------|-----------------------------|
|---x-----x---x---x---|--x---x---x---------x--------|
|---x---5-x-5-x-5-x-5-|--x-5-x-5-x--5------x--5-----|
|---x---5-x-5-x-5-x-5-|--x-5-x-5-x--5------x--5-----|
|---x-----x---x---x---|--x---x---x---------x--------|
|---------------------|-----------------------------|


   +E   Q.     +H          E      E E  E  +E  Q      E
|-(11)r-8------(8)-------|-----------------------------|
|------------------------|-----------------------------|
|------------------------|-8b8.5-10---10-(10)-8b9------|
|------------------------|--------------------------10-|
|------------------------|-----------------------------|
|------------------------|-----------------------------|
|
|   E   E  E E  E  E E E   E      E E  E   E  E   E  E
|------------------------|-----------------------------|
|---x------x----x----x---|-x--------x------x------x----|
|---x---5--x-5--x--5-x-5-|-x------5-x--5---x--5---x--5-|
|---x---5--x-5--x--5-x-5-|-x------5-x--5---x--5---x--5-|
|---x------x----x----x---|-x--------x------x------x----|
|------------------------|-----------------------------|


   +W                   E    E E E E  Q    E
|--------------------|-------8---8--------11b12==|
|--------------------|-10b11---------11----------|
|--------------------|---------------------------|
|-(10)---------------|---------------------------|
|--------------------|---------------------------|
|--------------------|---------------------------|
|
|   E  E E E E E E E    E    E E E E  E E  E
|--------------------|---------------------------|
|---x----x---x---x---|--x------x---x----x--------|
|---x--5-x-5-x-5-x-5-|--x----5-x-5-x--5-x--5-----|
|---x--5-x-5-x-5-x-5-|--x----5-x-5-x--5-x--5-----|
|---x----x---x---x---|--x------x---x----x--------|
|--------------------|---------------------------|


   +E   Q.     +Q    Q     E    E E  E E Q      E
|-(11)r-8------(8)-------|----------------------------|
|------------------------|---------------------11b13==|
|------------------------|-8b9-10---10---8b9----------|
|------------------------|----------------------------|
|------------------------|----------------------------|
|------------------------|----------------------------|
|
|   E   E  E E  E  E E E   E    E E  E E E   E  E
|------------------------|----------------------------|
|---x------x----x----x---|-x------x----x-----x--------|
|---x---5--x-5--x--5-x-5-|-x----5-x--5-x-5---x--5-----|
|---x---5--x-5--x--5-x-5-|-x----5-x--5-x-5---x--5-----|
|---x------x----x----x---|-x------x----x-----x--------|
|------------------------|----------------------------|


   +W                    E    E E E E  Q       S      +S
|---------------------|-------8---8-----------11b12==(11)r|
|-(11)r---------------|-10b11---------11b13---------------|
|---------------------|-----------------------------------|
|---------------------|-----------------------------------|
|---------------------|-----------------------------------|
|---------------------|-----------------------------------|
|
|   E   E E E E E E E    E    E E E E  E    E  E
|---------------------|-----------------------------------|
|---x-----x---x---x---|--x------x---x-------x-------------|
|---x---5-x-5-x-5-x-5-|--x----5-x-5-x--5----x--5----------|
|---x---5-x-5-x-5-x-5-|--x----5-x-5-x--5----x--5----------|
|---x-----x---x---x---|--x------x---x-------x-------------|
|---------------------|-----------------------------------|


                       To Coda
   +E   Q.         +E   Q   E    E      E E  E  +E  Q      E
|-(11)-------------------------|-----------------------------|
|------11b13======(11)r--------|-----------------------------|
|-----------------------0------|-8b8.5-10---10-(10)-8b9------|
|------------------------------|--------------------------10-|
|------------------------------|-----------------------------|
|------------------------------|-----------------------------|
|
|   E   E     E E   E   E E E    E      E E  E   E  E   E  E
|------------------------------|-----------------------------|
|---x---------x-----x-----x----|-x--------x------x------x----|
|---x---5-----x-5---x---5-x-5--|-x------5-x--5---x--5---x--5-|
|---x---5-----x-5---x---5-x-5--|-x------5-x--5---x--5---x--5-|
|---x---------x-----x-----x----|-x--------x------x------x----|
|------------------------------|-----------------------------|


                        D9
   +H        H           Q    Q   Q   Q
|--------------------||--5----5---5---5---|
|--------------------||--5----5---5---5---|
|--------------------||--5----5---5---5---|
|-(10)---------------||--4----4---4---4---|
|--------------------||--5----5---5---5---|
|--------------------||-------------------|
|
|   E  E E E E E E E     E  E E E E E E E
|--------------------||--x--5-x-5-x-5-x-5-|
|---x----x---x---x---||--x--5-x-5-x-5-x-5-|
|---x--5-x-5-x-5-x-5-||--x--5-x-5-x-5-x-5-|
|---x--5-x-5-x-5-x-5-||--x--4-x-4-x-4-x-4-|
|---x----x---x---x---||--x--5-x-5-x-5-x-5-|
|--------------------||-------------------|
|
| Gtr IV
|   E  E E E Q   E E    +W
|--------------------||-------------------|
|----------------5---||-------------------|
|------8S7-5-7-----5-||-(5)---------------|
|--------------------||-------------------|
|--------------------||-------------------|
|--------------------||-------------------|


  F9                C9
  Q   Q   Q   Q      Q    Q   Q   Q
|-8---8---8---8---|--3----3---3---3---|
|-8---8---8---8---|--3----3---3---3---|
|-8---8---8---8---|--3----3---3---3---|
|-7---7---7---7---|--2----2---2---2---|
|-8---8---8---8---|--3----3---3---3---|
|-----------------|-------------------|
|
| E E E E E E E E    E  E E E E E E E
|-x-8-x-8-x-8-x-8-|--x--3-x-3-x-3-x-3-|
|-x-8-x-8-x-8-x-8-|--x--3-x-3-x-3-x-3-|
|-x-8-x-8-x-8-x-8-|--x--3-x-3-x-3-x-3-|
|-x-7-x-7-x-7-x-7-|--x--2-x-2-x-2-x-2-|
|-x-8-x-8-x-8-x-8-|--x--3-x-3-x-3-x-3-|
|-----------------|-------------------|
|
| E E E E Q   E E   +W
|-----------------|-------------------|
|-------------5---|-------------------|
|---8S7-5-7-----5-|-(5)---------------|
|-----------------|-------------------|
|-----------------|-------------------|
|-----------------|-------------------|


  C7+9    Emaj7     D9                  F9                C9
  Q   Q   Q   Q      Q    Q   Q   Q     Q   Q   Q   Q      Q    Q   Q   Q
|-----------------|--5----5---5---5---|-8---8---8---8---|--3----3---3---3---|
|-4---4---5---5---|--5----5---5---5---|-8---8---8---8---|--3----3---3---3---|
|-3---3---8---8---|--5----5---5---5---|-8---8---8---8---|--3----3---3---3---|
|-2---2---6---6---|--4----4---4---4---|-7---7---7---7---|--2----2---2---2---|
|-3---3---7---7---|--5----5---5---5---|-8---8---8---8---|--3----3---3---3---|
|-----------------|-------------------|-----------------|-------------------|
|
| E E E E Q.    E    E  E E E E E E E   E E E E E E E E    E  E E E E E E E
|-----------------|--x--5-x-5-x-5-x-5-|-x-8-x-8-x-8-x-8-|--x--3-x-3-x-3-x-3-|
|-x-4-x-4-5-----5-|--x--5-x-5-x-5-x-5-|-x-8-x-8-x-8-x-8-|--x--3-x-3-x-3-x-3-|
|-x-3-x-3-8-----8-|--x--5-x-5-x-5-x-5-|-x-8-x-8-x-8-x-8-|--x--3-x-3-x-3-x-3-|
|-x-2-x-2-6-----6-|--x--4-x-4-x-4-x-4-|-x-7-x-7-x-7-x-7-|--x--2-x-2-x-2-x-2-|
|-x-3-x-3-7-----7-|--x--5-x-5-x-5-x-5-|-x-8-x-8-x-8-x-8-|--x--3-x-3-x-3-x-3-|
|-----------------|-------------------|-----------------|-------------------|
|
| E E E E Q   E E   +W                  E E E E Q   E E   +W
|-----------------|-------------------|-----------------|-------------------|
|-------------5---|-------------------|-------------5---|-------------------|
|---8S7-5-7-----5-|-(5)---------------|---8S7-5-7-----5-|-(5)---------------|
|-----------------|-------------------|-----------------|-------------------|
|-----------------|-------------------|-----------------|-------------------|
|-----------------|-------------------|-----------------|-------------------|


  1.                       2.
   E  E  Q   H              Q   Q   Q   Q
|--3---------------------||-3---3---3---3---|
|--3--------------------o||-3---3---3---3---|
|--3---------------------||-3---3---3---3---|
|--2---------------------||-2---2---2---2---|
|--3--------------------o||-3---3---3---3---|
|------------------------||-----------------|
|
|  E  E  Q   Q     E  E     E E E E E E E E
|--3------------------3--||-x-3-x-3-x-3-x-3-|
|--3------------------3-o||-x-3-x-3-x-3-x-3-|
|--3------------------3--||-x-3-x-3-x-3-x-3-|
|--2------------------2--||-x-2-x-2-x-2-x-2-|
|--3------------------3-o||-x-3-x-3-x-3-x-3-|
|------------------------||-----------------|
|
|       Gtr III                             G
| +E  E  E E E  E  E  E     W
|------------------------||-----------------|
|-----------------------o||-----------------|
|-(5)----9-8-5-----------||-----------------|
|---------------8--9-10--||-----------------|
|-------10-9-8----------o||-----------------|
|--------------10-10-12--||-----------------|


  Am                 C9/G
   Q   Q   Q   Q     Q   Q   Q   Q
|--5---5---5---5---|-3---3---3---3---|
|--5---5---5---5---|-3---3---3---3---|
|--5---5---5---5---|-3---3---3---3---|
|--7---7---7---7---|-2---2---2---2---|
|--7---7---7---7---|-3---3---3---3---|
|--5---5---5---5---|-3---3---3---3---|
|
|  E E E E E E E E   E E E E E E E E
|--x-5-x-5-x-5-x-5-|-x-3-x-3-x-3-x-3-|
|--x-5-x-5-x-5-x-5-|-x-3-x-3-x-3-x-3-|
|--x-5-x-5-x-5-x-5-|-x-3-x-3-x-3-x-3-|
|--x-7-x-7-x-7-x-7-|-x-2-x-2-x-2-x-2-|
|--x-7-x-7-x-7-x-7-|-x-3-x-3-x-3-x-3-|
|--x-5-x-5-x-5-x-5-|-x-3-x-3-x-3-x-3-|
|
|tr IV
|  W                 W
|-/5---------------|-8---------------|
|------------------|-----------------|
|------------------|-----------------|
|------------------|-----------------|
|------------------|-----------------|
|------------------|-----------------|


  F7                  D9
   Q    Q   Q   Q      Q    Q   Q   Q
|--1----1---1---1---|--5----5---5---5---|
|--1----1---1---1---|--5----5---5---5---|
|--2----2---2---2---|--5----5---5---5---|
|--1----1---1---1---|--4----4---4---4---|
|--3----3---3---3---|--5----5---5---5---|
|--1----1---1---1---|-------------------|
|
|  E  E E E E E E E    E  E E E E E E E
|--x--1-x-1-x-1-x-1-|--x--5-x-5-x-5-x-5-|
|--x--1-x-1-x-1-x-1-|--x--5-x-5-x-5-x-5-|
|--x--2-x-2-x-2-x-2-|--x--5-x-5-x-5-x-5-|
|--x--1-x-1-x-1-x-1-|--x--4-x-4-x-4-x-4-|
|--x--3-x-3-x-3-x-3-|--x--5-x-5-x-5-x-5-|
|--x--1-x-1-x-1-x-1-|-------------------|
|
| +W                  +W
|-(8)---------------|-(8)---------------|
|-------------------|-------------------|
|-------------------|-------------------|
|-------------------|-------------------|
|-------------------|-------------------|
|-------------------|-------------------|


   Horn Solo
    C9                F9
    E E  Q  Q   E E   E E   Q  Q   E E 11x
||--3-3--3--3---3-3-|-3-3---3--3---3-3--||
||o-3-3--3--3---3-3-|-1-1---1--1---1-1-o||
||--3-3--3--3---3-3-|-2-2---2--2---2-2--||
||--2-2--2--2---2-2-|-1-1---1--1---1-1--||
||o-3-3--3--3---3-3-|------------------o||
||------------------|-------------------||
|
|   e E  Q  e E E E   E E   Q  e E E E 11x
||--3---/5--3-3---8-|-8---/10--8-8---3--||
||o-3---/5--3-3---8-|-8---/10--8-8---3-o||
||--3---/5--3-3---8-|-8---/10--8-8---3--||
||--2-------2-----7-|----------7--------||
||o-3-3-----3---3-8-|---8------8---8---o||
||----3---------3---|---8----------8----||
|
|   W                 W                11x
||------------------|-------------------||
||o-----------------|------------------o||
||------------------|-------------------||
||------------------|-------------------||
||o-----------------|------------------o||
||------------------|-------------------||


                            D.S. al Coda &
  C9
  E E  Q  Q   E E   E E  Q   H
|-3-3--3--3---3-3-|-3--------------------||
|-3-3--3--3---3-3-|-3--------------------||
|-3-3--3--3---3-3-|-3--------------------||
|-2-2--2--2---2-2-|-2--------------------||
|-3-3--3--3---3-3-|-3--------------------||
|-----------------|----------------------||
|
|                       Gtr III          Gt
|         <
| e E  Q  E E E E   E E  E E E  E  E  E
|-3---/5--3-3-3-3-|-3--------------------||
|-3---/5--3-3-3-3-|-3--------------------||
|-3---/5--3-3-3-3-|-3----9-8-5-----------||
|-2-------2-2-2-2-|-2-----------8--9-10--||
|-3-3-----3-3-3-3-|-3---10-9-8-----------||
|---3-------------|------------10-10-12--||


  C
  E      E E  E  +E  Q      E    +W
|-----------------------------|---------------------*|
|-----------------------------|---------------------*|
|-8b8.5-10---10-(10)-8b9------|---------------------*|
|--------------------------10-|-(10)----------------*|
|-----------------------------|---------------------*|
|-----------------------------|---------------------*|
|
|r II
| E      E E  E   E  E   E  E     E  E E E E E E E
|-----------------------------|---------------------*|
|-x--------x------x------x----|---x----x---x---x----*|
|-x------5-x--5---x--5---x--5-|---x--5-x-5-x-5-x-5--*|
|-x------5-x--5---x--5---x--5-|---x--5-x-5-x-5-x-5--*|
|-x--------x------x------x----|---x----x---x---x----*|
|-----------------------------|---------------------*|


Duration Legend
---------------
W - whole; H - half; Q - quarter; E - 8th; S - 16th; T - 32nd; X - 64th; a - acciaccatura
+ - note tied to previous; . - note dotted; .. - note double dotted
Uncapitalized letters represent notes that are staccato (1/2 duration)
Irregular groupings are notated above the duration line
Duration letters will always appear directly above the note/fret number it represents the
duration for.  Duration letters with no fret number below them represent rests.  Multi-
bar rests are notated in the form Wxn, where n is the number of bars to rest for.  Low
melody durations appear below the staff

Tablature Legend
----------------
 h   - hammer-on
 p   - pull-off
 b   - bend
 pb  - pre-bend
 r   - bend release (if no number after the r, then release immediately)
 /\  - slide into or out of (from/to "nowhere")
 s   - legato slide
 S   - shift slide
  - natural harmonic
[n]  - artificial harmonic
n(n) - tapped harmonic
 ~   - vibrato
 tr  - trill
 T   - tap
 TP  - trem. picking
 PM  - palm muting
\n/  - tremolo bar dip; n = amount to dip
 \n  - tremolo bar down
 n/  - tremolo bar up
/n\  - tremolo bar inverted dip
 =   - hold bend; also acts as connecting device for hammers/pulls
 <>  - volume swell (louder/softer)
 x   - on rhythm slash represents muted slash
 o   - on rhythm slash represents single note slash

Misc Legend
-----------
 |  - bar
||  - double bar
||o - repeat start
o|| - repeat end
*|  - double bar (ending)
 :  - bar (freetime)
 $  - Segno
 &  - Coda
Tempo markers -  = BPM(8/16=s8/s16), where s8 = swing 8ths, s16 = swing 16ths
Добавлено: 05.08.2015
Другие материалы по этой песне:

Страница создана 12.04.2014
http://primanota.ru/crusaders/put-it-where-you-want-it-chords.htm
Привет, Гость.
Предлагаем пройти революционный курс по гитаре.
Подарок от PrimaNota.Ru, забирай!