PrimaNota.ru - самый крупный в мире бесплатный архив песенных текстов, аккордов, табулатур и нот


Cruel Sea - Blame It On The Moon - аккорды и текст, таба, видео

Регистрация Запомнить меня
Войти через:  Facebook Google Twitter Vk Yandex Mail.ru

Cruel Sea - Blame It On The Moon - аккорды и текст, таба, видео

Печатать
Просмотров: 137
Blame It On The Moon
Cruel Sea
date: 07/11/98
transcriber: stephan jaensch
e-mail: jaenschman@aol.com
artist: the cruel sea
song: blame it on the moon
album: the honeymoon is over
author: unknown

BLAME IT ON THE MOON - THE CRUEL SEA

   Am
My mind is all...
F
E F
G C F G Am

 F
Full it's looking...
C
F
E

     Am
Now life is just...
F E
Am
F E F
G C F G Am

Am              F
Or if you just...
E
Am F
G

                 Am F G C F
Blame it on the...
G Am F
G C F G Am F
G C F G Am

SOLO

        Am              C           E       Am              C
E---------------------------------------------------------------------------
H---------------------------------------------------------------------------
G---------------------------------------------------------------------------
D-------------------------2h3p2-0-------------------------------------2h3p2-
A-------0-0-0---0---0-2-3---------3-2-------0-0-0---0---0-2-3-2h3-2h3-------
E-0-0-0-------3---3-------------------0-0-0-------3---3---------------------

      G       F             C     G     Am
E---------------------------------------------------------------
H-------------------------0-1-0h1p0-----------------------------
G---------------------0-2-----------2p0-2-0---0-0h2-0---------2-
D-0h2p0---------0-2-3-----------------------2---------2-0-----2-
A---------0-2-3-------------------------------------------3-2-0-
E-------3-------------------------------------------------------

     
Добавлено: 10.10.2013
Другие материалы по этой песне:
  • Аккорды и текст

Страница создана 28.06.2012
http://primanota.ru/cruel-sea/blame-it-on-the-moon-chords.htm
Привет, Гость.
Предлагаем пройти революционный курс по гитаре.
Подарок от PrimaNota.Ru, забирай!