PrimaNota.ru - самый крупный в мире бесплатный архив песенных текстов, аккордов, табулатур и нот


Crucis - Corto Amanecer - бас-таба, видео

Регистрация Запомнить меня
Войти через:  Facebook Google Twitter Vk Yandex Mail.ru

Crucis - Corto Amanecer - бас-таба, видео

Печатать
Просмотров: 80
Новый альбом группы 'Черный Кузнец' по культовому сериалу 'Сверхъестественное'!
            (2 veces)
G|----------------------5-7-|-------------------------7-9-|
D|--------15------5-7-8-----|------------------6-7-8-9----|
A|-8--8--/----6-8-----------|-5---3---2-2-2-2-7-----------|
E|--------------------------|----------2-2-2-2------------|

            (2 veces)
G|----------------------5-7-|-------------------------7-9-|
D|--------15------5-7-8-----|------------------6-7-8-9----|
A|-8--8--/----6-8-----------|-5---3---2-2-2-2-7-----------|
E|--------------------------|----------2-2-2-2------------|

            (2 veces)
G|----------------------5-7-|-------------------------------------
D|--------15------5-7-8-----|-------------------------------------
A|-8--8--/----6-8-----------|-5---3---2-2-2-2-6----6----6----6----
E|--------------------------|----------2-2-2-2-----------------6--

?Algo estaba ocurriendo?                               ?alrededor?
G|-----8------7---------------------------------------------------------
D|----------------------------------------------------------------------
A|-6-----6--5-----------------------------------------------------------
E|--------------1---3---4--3--1--4---6-----7-7--6-4--7---5---3----------

?Mientras la calma llenaba?                            ?la habitación?
G|-----8------7---------------------------------------------------------
D|----------------------------------------------------------------------
A|-6-----6--5-----------------------------------------------------------
E|---------5----1---3---4--3--1--4---6-----7-7--6-4--7---5---3----------

?El criminal comenzaba?   ?el show de la violación?
G|--------------------------------5--5--5-------------------------
D|-4-4-4-4-4-7--4-7--4---7-7-7-7-7--7--7--------------------------
A|------------------------5-5-5-5------------8---7---5--8---7---5-
E|----------------------------------------------------------------

          (2 veces)              (2 veces)
G|------|--5----------|------|---9------------|
D|-3--5-|-7-7-5-7-5-3-|-7--9-|-10-10-9-10-9-7-|
A|------|-------------|------|----------------|
E|------|-------------|------|----------------|

(vuelve a hacer lo mismo que en el comienzo)
            (2 veces)
G|----------------------5-7-|-------------------------7-9-|
D|--------15------5-7-8-----|------------------6-7-8-9----|
A|-8--8--/----6-8-----------|-5---3---2-2-2-2-7-----------|
E|--------------------------|----------2-2-2-2------------|

            (2 veces)
G|----------------------5-7-|-------------------------7-9-|
D|--------15------5-7-8-----|------------------6-7-8-9----|
A|-8--8--/----6-8-----------|-5---3---2-2-2-2-7-----------|
E|--------------------------|----------2-2-2-2------------|

            (2 veces)
G|----------------------5-7-|--------------------------------9----
D|--------15------5-7-8-----|-------------------------------------
A|-8--8--/----6-8-----------|-5---3---2-2-2-2-6----6----6---------
E|--------------------------|----------2-2-2-2-----------------6--

?el cuerpo azul de Canela?                            ?se desperto?
G|-----8------7---------------------------------------------------------
D|----------------------------------------------------------------------
A|-6-----6--5-----------------------------------------------------------
E|------6-------1---3---4--3--1--4---6-----7-7--6-4--7---5---3----------

?mientras la sangre brotaba?                          ?no sin placer?
G|-----8------7---------------------------------------------------------
D|----------------------------------------------------------------------
A|-6-----6--5-----------------------------------------------------------
E|------6-------1---3---4--3--1--4---6-----7-7--6-4--7---5---3----------

?un clima muy divertido?  ?el de aquel amanecer?
G|--------------------------------5--5--5----
D|-4-4-4-4-4-7--4-7--4---7-7-7-7-7--7--7-----
A|------------------------5-5-5-5------------
E|-------------------------------------------

G|----------------------------------------------------------------|
D|-5--------4------------9-----4--4-4-4-4-4-4---5---4---4---------|
A|--------4-------5--7----7--7-----------------------------2h3-5--|
E|-------------------------------------------3--------------------|

G|----------------------------------------------
D|--3----------7-6-5----------------7-6-5-------
A|-5-5-3-0-5--5-5-5-5|8-7-6-5------5-5-5-5|8-7-6
E|---------------------------8-6----------------

G|--------------------------------------
D|--5-4-3---------------5-4-3-----------
A|-3-3-3-3|6-5-4-3-----3-3-3-3|6-5-4-3--
E|----------------6-4-------------------

   /: slide up
x|x : tocar las dos notas consecutivamente rápido por Ej. 5|8
   h: hammer on (ligado)

Mientras su musica se siga tocando y escuchando el carpo jamas morira,
vivira eternamente en la memoria de todos...
e-mail: zarathustra4321@
Добавлено: 04.10.2014
Другие материалы по этой песне:

Страница создана 04.10.2014
http://primanota.ru/crucis/corto-amanecer-chords.htm
Привет, Гость.
Предлагаем пройти революционный курс по гитаре.
Подарок от PrimaNota.Ru, забирай!