PrimaNota.ru - самый крупный в мире бесплатный архив песенных текстов, аккордов, табулатур и нот


Crucified Barbara - To Kill A Man - таба, бас-таба, видео

Регистрация Запомнить меня
Войти через:  Facebook Google Twitter Vk Yandex Mail.ru

Crucified Barbara - To Kill A Man - таба, бас-таба, видео

Печатать
Просмотров: 233
Уроки эстрадного вокала в Санкт-Петербурге
-------------------------------------------------------------------------------
                             TO KILL A MAN - Crucified Barbara
-------------------------------------------------------------------------------
Tabbed by: Neil Sackman

Tuning: C# Ab Db Gb Bb Eb
 intro: X4
eb|---------------------------------------------------------------------------|
Bb|---------------------------------------------------------------------------|
Gb|---------------------------------------------------------------------------|
Db|---------------------------------------------------------------------------|
Ab|--5---3---5-0-5-6----------------------------------------------------------|
C#|-------------------6-5-0--6-5-3-0------------------------------------------|

 verse: X2
eb|---------------------------------------------------------------------------|
Bb|---------------------------------------------------------------------------|
Gb|------------------55-------------------------------------------------------|
Db|------------------55-------------------------------------------------------|
Ab|---6---5---6---5--33----6---5---6---5--8-7-6-------------------------------|
C#|-00--00--00--00-------00--00--00--00---------------------------------------|

 pre-chorus (Klara)
eb|---------------------------------------------------------------------------|
Bb|----------7--------------9-------------7-----------------------------------|
Gb|------7----7---------9----9--------7----7----------------------------------|
Db|----7-------7------9-------9-----7-------7---9-----------------------------|
Ab|-5--------------7--------------5-------------7-----------------------------|
C#|---------------------------------------------------------------------------|

 chourus (Klara)
eb|---------------------------------------------------------------------------|
Bb|---------------------------------------------------------------------------|
Gb|---------------------------------------------------------------------------|
Db|-------------------------------5-------------------------------------------|
Ab|---8-7-5----------------8-7-5----8-7-8-7-8---------------------------------|
C#|-0-------8-7--5-7-5-7-0----------------------------------------------------|

eb|---------------------------------------------------------------------------|
Bb|---------------------------------------------------------------------------|
Gb|---------------------------------------------------------------------------|
Db|----------------------------7--8-7-5--------9--10-9-7----------------------|
Ab|--8-7-5------------------5----------------7--------------------------------|
C#|-0------8-7--5-7-5-7--5----------------7-----------------------------------|

 solo (Mia)
eb|----10--------10----11------10---------------------------------------------|
Bb|-/10--10-8-10----10----10-8----10-8----------8-----------------------------|
Gb|-----------------------------------8-7-8-7-8--8-7--8/12--------------------|
Db|---------------------------------------------------------------------------|
Ab|---------------------------------------------------------------------------|
C#|---------------------------------------------------------------------------|

eb|---------------------------------------------------------------------------|
Bb|-7----8----10----/10--11-10-8-11-10-8--10----------------------------------|
Gb|--7-7--7-7---7-7-----------------------------------------------------------|
Db|---------------------------------------------------------------------------|
Ab|---------------------------------------------------------------------------|
C#|---------------------------------------------------------------------------|

eb|---------------------------------------------------------------------------|
Bb|-------------------------------------------------------7-8-7---5---3-------|
Gb|---------------------------------------------------------------------------|
Db|-7-7-8-10-8-7-11-10-8-10-8-7--7-7-8-10-8-7-5-7-5-4-----4-5-4---2---0-------|
Ab|---------------------------------------------------------------------------|
C#|---------------------------------------------------------------------------|

eb|---------------------------------------------------------------------------|
Bb|-11-----13-----------------------------------------------------------------|
Gb|---12-12--12-12--10-----12------9-----9------/12---------------------------|
Db|-------------------12-12--12-12--10-10-10-10-------------------------------|
Ab|---------------------------------------------------------------------------|
C#|---------------------------------------------------------------------------|

eb|---------------------------------------------------------------------------|
Bb|-11-----13-----------------------------------------------------------------|
Gb|---12-12--12-12--10------12-----9-----9-----9------------------------------|
Db|-------------------12-12---12-12-11-11-11-11-------------------------------|
Ab|---------------------------------------------------------------------------|
C#|---------------------------------------------------------------------------|

 second solo (Klara) X2
eb|---------------------------------------------------------------------------|
Bb|---------------------------------------------------------------------------|
Gb|---------------------------------------------------------------------------|
Db|-----4-2----------------------4-2-----2-h4---------------------------------|
Ab|-2--------5-4-2---4-5-4-5-2--------5---------------------------------------|
C#|---------------------------------------------------------------------------|


************************************

| /   slide up
| \   slide down
| h   hammer-on
| p   pull-off
| ~   vibrato
| +   harmonic
| x   Mute note
| b   Bend
| pb  Pre-bend
| br  Bend release
| pbr Pre-bend release
| brb Bend release bend

************************************
Добавлено: 08.06.2016
Другие материалы по этой песне:
  • Аккорды и текст

Страница создана 25.09.2014
http://primanota.ru/crucified-barbara/to-kill-a-man-chords.htm
Привет, Гость.
Предлагаем пройти революционный курс по гитаре.
Подарок от PrimaNota.Ru, забирай!