PrimaNota.ru - самый крупный в мире бесплатный архив песенных текстов, аккордов, табулатур и нот


Crucial Unit - Crucial Units Friendship Picnic - таба, видео

Регистрация Запомнить меня
Войти через:  Facebook Google Twitter Vk Yandex Mail.ru

Crucial Unit - Crucial Units Friendship Picnic - таба, видео

Печатать
Просмотров: 90
---------------------------------------------------------------------------
                        Crucial units friendship picnic- Crucial Unit
-------------------------------------------------------------------------
Tabbed by:justin soos
Email:buttfacelarry@hotmail.com

Tuning: Standard

my friend wanted me to upload this tab


e|---------------------------------------------------------------------------|
B|---------------------------------------------------------------------------|
G|-------6-6--5--5--6--------8-8--6-6--5-------------------------------------|
D|-6-6--6-6--5--5--6--3-3--8-8--6-6--5---------------------------------------|
A|-6-6--4-4--3--3--4--3-3--6-6--4-4--3---------------------------------------|
E|-4-4-------------------1-1-------------------------------------------------|


e|----------------------------------------------------------------------------|
B|----------------------------------------------------------------------------|
G|----------------13--15------------------------------------------------------|
D|--10—11--10----xx--xx-------------------------------------------------------|
A|--8----9--8----11--13-------------------------------------------------------|
E|----------------------------------------------------------------------------|

e|-------------------------------------------------------------------------|
B|-------------------------------------------------------------------------|
G|----------------------6-6--5--5--6---------------------------------------|
D|--4--------------6-6--6-6--5--5--6---------8-8-6-6-5---------------------|
A|--4-x8-----------4-4--3-3--4--3--3----3-3--6-6-4-4-3---------------------|
E|--2--------------4-4------------------1-1--------------------------------|


e|-----------------------------------------------------------------------------|
B|-----------------------------------------------------------------------------|
G|----------------13--15-------------------------------------------------------|
D|-10—-11--10----xx--xx--------------------------------------------------------|
A|-8----9----8----11--13-------------------------------------------------------|
E|-----------------------------------------------------------------------------|

e|-----------------------------------------------------------------------------|
B|-----------------------------------------------------------------------------|
G|----------------------6-6--5--5--6--------8-8--6-6--5------------------------|
D|--4--------------6-6--6-6--5--5--6--3-3--8-8--6-6--5-------------------------|
A|--4-x8-----------6-6--4-4--3--3--4--3-3--6-6--4-4--3-------------------------|
E|--2--------------4-4-------------------1-1-----------------------------------|

Solo
when u play the solo play the d string 2 frets lower
e|----------------------------------------------------------------------------|
B|----------------------------------------------------------------------------|
G|----------------------------------------------------------------------------|
D|----------------------------------------------------------------------------|
A|--8888—11-11-10-10-8---4-4-4-4-3-3-4-4-6----------------x4------------------|
E|----------------------------------------------------------------------------|

e|----------------------------------------------------------------------------|
B|----------------------------------------------------------------------------|
G|----------------------------------------------------------------------------|
D|----------------------------------------------------------------------------|
A|--3-4-6---3-4-1---3-4-6---3-4-1--3-4-6--3-4-1-------------------------------|
E|--------------------------------------------------------4-------------------|

then do the intro till songs over

http://www.crucialunit.com
Добавлено: 26.03.2012
Другие материалы по этой песне:
  • Аккорды и текст

Страница создана 26.03.2012
http://primanota.ru/crucial-unit/crucial-units-friendship-picnic-chords.htm
Привет, Гость.
Предлагаем пройти революционный курс по гитаре.
Подарок от PrimaNota.Ru, забирай!