PrimaNota.ru - самый крупный в мире бесплатный архив песенных текстов, аккордов, табулатур и нот


Cruachan - 1014 Ad - бас-таба, видео

Регистрация Запомнить меня
Войти через:  Facebook Google Twitter Vk Yandex Mail.ru

Cruachan - 1014 Ad - бас-таба, видео

Печатать
Просмотров: 136
Band: Cruachan
Song: 1014 A.D.
CD: Pagan
http://cruachan.metalfan.nl/cruachan_main.htm

Intro
G|---|-------------------------------------|
D|---|-------------------------------------|
A|---|--------3--------------3------3------|
E|---|-3h5-5-5-5-5-5-3h5-5-5--5-5-5--5-5-5-|

G|-------------------------------------|
D|--------3--------------3------3------|
A|-3h5-5-5-5-5-5-3h5-5-5--5-5-5--5-5-5-|
E|-------------------------------------|

G|-------------------------------------------|
D|-------------------------------------------|
A|--------3--------------3------3------------|
E|-3h5-5-5-5-5-5-3h5-5-5--5-5-5--5-5-5-1~0~1-|

Verse
G|-------------------------------------------------------------------|
D|-------------------------------------------------------------------|
A|--------------------------------------------------------2-5-2------|
E|-0-0-0-0-0-0-0-0-0-0-0-4-3-2-0-0-0-0-0-0-0-0-0-0-0-2-3-4-----4-3-2-|

G|-------------|Rpt-|--------------------------------|
D|-------------|Rpt-|--------------------------------|
A|-5-55-3-33-5-|Rpt-|---------------------2-5-2------|
E|-------------|Rpt-|-0-0-0-0-0-0-0-2-3-4------4-3-2-|

Verse 2
G|---------------------------------------------------------------|
D|---------------------------------------------------------------|
A|---------------------------------------------------------------|
E|-0-0-2-0-3-0-2-0-0-2-0-3-0-2-0-2-2-3-2-4-2-3-2-2-2-3-2-4-2-3-2-|

G|-----------------------------|
D|-----------------------------|
A|-----------------------------|
E|-0-0-3-0-2-0-3-0-4-0-3-0-2-0-|

Bridge
G|-------------------------------------------------------------|
D|-------------------------------------------------------------|
A|-------------------------------------------------3-3-3-------|
E|-0h5-5-5-5-0h5-5-5-5-3-3-3-3-0h5-5-5-5-0h5-5-5-5-------3-3-3-|

G|-----------------------------------------------|
D|-----------------------------------------------|
A|---------------------------------------------3-|
E|-0h5-5-5-5-0h5-5-5-5-3-3-3-3-0h5-5-5-5-0h3h5---|

Tabbed by norin (norin02 on YouTube).
Send any questions or comments to norin@vampirefreaks.com 
If you steal my tabs, I will sodomize your mother.
Добавлено: 03.04.2012
Другие материалы по этой песне:
  • Аккорды и текст

Страница создана 03.04.2012
http://primanota.ru/cruachan/1014-ad-chords.htm
Привет, Гость.
Предлагаем пройти революционный курс по гитаре.
Подарок от PrimaNota.Ru, забирай!