PrimaNota.ru - самый крупный в мире бесплатный архив песенных текстов, аккордов, табулатур и нот


Crows-an-wra - Heavy Heads - таба, видео

Регистрация Запомнить меня
Войти через:  Facebook Google Twitter Vk Yandex Mail.ru

Crows-an-wra - Heavy Heads - таба, видео

Печатать
Просмотров: 90
song: Heavy Heads
band: Crows-An-Wra
album: Kalopsia
http://crowsanwra.co.uk/

tab by hxchaos(at)hotmail(dot)com

Intro
E|--------------0------------0--------------0-----------------|
B|----------2------------2--------------3-----3------3---3\---|
G|------------------------------------------------------------|
D|------4------------4--------------5-----------5-------------|
A|------------------------------------------------------------|
E|---2----2---2----2---2---2---2-3----3---3--------3---3--\---|

E|--------------0------------0--------------0-----------------|
B|----------2------------2--------------3-----3------3---3/---|
G|------------------------------------------------------------|
D|------4------------4--------------5-----------5-------------|
A|------------------------------------------------------------|
E|---2----2---2----2---2---2---2-3----3---3--------3---3--/---|

E|--------0-0--------0-----------0----------0------------|
B|--------5-5\---3-----3-----------2----------2----------|
G|------6---6\-----------4-----------3----3-------333/---|
D|------------------------------------------------444/---|
A|-------------------------------------------------------|
E|---5---------3---3--------0-2---------2---------222/---|

E|--------0-0--------0-----------0----------0-----|
B|--------5-5\---3-----3-----------2----------2---|
G|------6---6\-----------4-----------3----3-------|
D|------------------------------------------------|
A|------------------------------------------------|
E|---5---------3---3--------0-2---------2---------|

E|---------------0---0----------------------------|
B|-------3---2---5---3----------------------------|
G|----3-44---3---6---4----------------------------|
D|------------------------------------------------|
A|---44-55---4---7---5----------------------------|
E|---22-33---2---5---3------------------------3---|

Riff 1 (same as intro)
E|--------------0------------0--------------0-----------------|
B|----------2------------2--------------3-----3------3---3\---|
G|------------------------------------------------------------|
D|------4------------4--------------5-----------5-------------|
A|------------------------------------------------------------|
E|---2----2---2----2---2---2---2-3----3---3--------3---3--\---|

E|--------------0------------0--------------0-----------------|
B|----------2------------2--------------3-----3------3---3/---|
G|------------------------------------------------------------|
D|------4------------4--------------5-----------5-------------|
A|------------------------------------------------------------|
E|---2----2---2----2---2---2---2-3----3---3--------3---3--/---|

E|--------0-0--------0-----------0----------0------------|
B|--------5-5\---3-----3-----------2----------2----------|
G|------6---6\-----------4-----------3----3-------333/---|
D|------------------------------------------------444/---|
A|-------------------------------------------------------|
E|---5---------3---3--------0-2---------2---------222/---|

E|--------0-0--------0-----------0------------------|
B|--------5-5\---3-----3-----------2----------------|
G|------6---6\-----------4-----------3--------------|
D|--------------------------------------------------|
A|--------------------------------------------------|
E|---5---------3---3--------0-2---------222222222---|

Riff 2

 |-------------X 2------------------------------------------------------------|
E|--------------|--------------|----------------------------------------------|
B|------2---2---|------2---2---|------7---7------7---7-----3---3-----5---5----|
G|--------------|--------------|----------------------------------------------|
D|--------------|--------------|----------------------------------------------|
A|--------------|--------------|----------------------------------------------|
E|---2----2-----|---3----3-----|---7----7----6----6-----3----3----5----5------|
       (x4)          (x4)

E|--------------|--------------|---------------------------------------------|
B|------2---2---|------2---2---|------7---7------7---7-----3---3-----5---5---|
G|--------------|--------------|---------------------------------------------|
D|--------------|--------------|---------------------------------------------|
A|--------------|--------------|---------------------------------------------|
E|---2----2-----|---3----3-----|---7----7----6----6-----3----3----5----5-----|
       (x4)          (x4)

E|--------------|
B|------2---2---|
G|--------------|
D|--------------|
A|--------------|
E|---2----2-----|
       (x8)

then
E|----------------0---0---|-------0---------------|
B|-------3----2---5---3---|-------3---------------|
G|---4--444---3---6---4---|-------4---------------|
D|------------------------|-----------------------|
A|---5--555---4---7---5---|-------5---------------|
E|---3--333---2---5---3---|-------2---------------|
           (x3)            end on
Добавлено: 06.08.2015
Другие материалы по этой песне:
  • Аккорды и текст

Страница создана 06.08.2015
http://primanota.ru/crows-an-wra/heavy-heads-chords.htm
Привет, Гость.
Предлагаем пройти революционный курс по гитаре.
Подарок от PrimaNota.Ru, забирай!