PrimaNota.ru - самый крупный в мире бесплатный архив песенных текстов, аккордов, табулатур и нот


Crown - I Wont Follow - текст песни, таба, видео

Регистрация Запомнить меня
Войти через:  Facebook Google Twitter Vk Yandex Mail.ru

Crown - I Wont Follow - текст песни, таба, видео

Печатать
Просмотров: 139
                        The Crown  -  I Won't Follow
                    From the Album - Death Race King
                   Copyright 2000 Metal Blade Records

                        Version 1.0 - JUNE '02

Transcribed by: Mike B.

For Questions, Comments, Newest Version, or Corrections contact
 Steve S. : at Setherial99@aol.com

.  - palm mute                  /  - slide up to
\  - slide down to              ~  - vibrato
"  - tremelo picking           ( ) - ghost note
b  - bend                       h  - hammer-on
fb - full bend (1 step)         p  - pull-off
hb - half bend (1/2 step)       r  - release a bend
t  - tapping                    ah - artificial harmonic

Tune Gtr to E

I Won't Follow

[Riff A]
[------------------------------|---------------------------]
[------------------------------|---------------------------]
[*-----------------------------|--------------------------*]GTR 1
[*----3--2--3--2h3-2h3-2h3-----|-----3--2--3--2h3-2h3--5--*] 
[--0------------------------5--|--0--------------------3---]
[------------------------------|---------------------------]

[------------------------------|---------------------------]
[------------------------------|---------------------------]
[*-----------------------------|--------------------------*]
[*----3--2--3--2h3-2h3-2h3-----|-----3--2--3--2-3-2--5----*] 
[--0------------------------5--|---------------------3-----]
[------------------------------|--1------------------------]


[Riff B]
[------------------------------|---------------------------]
[------------------------------|---------------------------]
[*-2---------------------------|---------------------2-2--*]GTR 1
[*-2---------------------------|---------------------2-2--*] 
[--0---------------------------|---------------------0-0---]
[------------------------------|---------------------------]
                                                     . .
[------------------------------|---------------------------]
[------------------------------|---------------------------]
[*-----------------------------|--------------------------*]GTR 2
[*-7777--7777--7777--7777------|--7777--7777--7777--7777--*] 
[------------------------------|---------------------------]
[------------------------------|---------------------------]
   ....  ....  ....  ....         ....  ....  ....  ....
[------------------------------|---------------------------]
[------------------------------|---------------------------]
[*-----------------------------|--------------------------*]GTR 1
[*-5---------------------------|--5--5--5-5--5-5----------*]
[--5---------------------------|--5--5--5-5--5-5-----------]
[--3---------------------------|--3--3--3-3--3-3-----------]
                                  .  .  . .  . .
[------------------------------|---------------------------]
[------------------------------|---------------------------]
[*-----------------------------|--------------------------*]GTR 2
[*-7777--7777--7777--7777------|--7777--7777--7777--7777--*]
[------------------------------|---------------------------]
[------------------------------|---------------------------]
   ....  ....  ....  ....         ....  ....

Solo 1
[---------|------------|------------|----------8--|--10-8--------|------]
[--12p10--|--8--12p10--|--8--12p10--|--8-10-12----|-------12-10--|--8---]
[*--------|------------|------------|-------------|--------------|-----*]GTR 1
[*--------|------------|------------|-------------|--------------|-----*] 
[---------|------------|------------|-------------|--------------|------]
[---------|------------|------------|-------------|--------------|------]

[--19--15--17--13-15-12-13----12-----|----------------------------|-----]
[--------------------------15----13--|----------------------------|-----]
[*-----------------------------------|--9--7--5-----10--9--7------|-12-*]
[*-----------------------------------|-----------9------------10--|----*] 
[------------------------------------|----------------------------|-----]
[------------------------------------|----------------------------|-----]

[------------------|----------------------------------------------------]
[------------------|----------------------------------------------------]
[*-----------------|---------------------------------------------------*]
[*-9h10p9--7----9--|-----7---------------------------------------------*] 
[------------10----|--10----9-10-7-9-5-7-3-5-2-3---2--------------------]
[------------------|-----------------------------5---3-5-2-3-0----------]

[-----------------------|-----------------------------------------------]
[-----------------------|-----------------------------------------------]
[*-----------------7-9--|----------------12-14-------------------------*]
[*---------7h9h10-------|---------12-14--------------------------------*] 
[--7h9h10---------------|--12h14----------------------------------------]
[-----------------------|-----------------------------------------------]

[-----------------------15-12--|--15-17--14-15--12-14--10-12------------]
[----------------12-15---------|----------------------------------------]
[*--------12-14----------------|---------------------------------------*]
[*-12-14-----------------------|---------------------------------------*] 
[------------------------------|----------------------------------------]
[------------------------------|----------------------------------------]

[-7p0--8p0--7p0--5p0--3p0--5p0-|-7----------7---------------------------]
[------------------------------|---10-8-10----10-8-10--8-10-7-10--8-7---]
[*-----------------------------|--------------------------------------9*]
[*-----------------------------|---------------------------------------*] 
[------------------------------|----------------------------------------]
[------------------------------|----------------------------------------]

[-7p0--8p0--7p0--5p0--3p0--5p0-|----12-15-12-------------------------------]
[------------------------------|-15----------15-12-------15-12-------------]
[*-----------------------------|-------------------14-12-------14-12------*]
[*-----------------------------|-------------------------------------14-12*] 
[------------------------------|-------------------------------------------]
[------------------------------|-------------------------------------------]

[------------]
[--------12--]
[*-12-14-12-*]
[*----------*]
[------------]
[------------]


[Riff C]
[----------------------------------------|----------------------------]
[----------------------------------------|----------------------------]
[*---------------------------------------|---------------------------*]GTR 1
[*-3--2---------------3--2---------------|--3-2--3-2--3-2------------*] 
[--3--2---------------3--2---------------|--3-2--3-2--3-2-------------]
[--1--0--0-0-0-0-0-0--1--0--0-0-0-0-0-0--|--1-0--1-0--1-0--0-0-0-0-0--]

[Riff D]
[-------------------------------|-----------------------]
[-------------------------------|-----------------------]
[*------------------------------|-----5-5-5-5--7-7-77--*]GTR 1
[*-7----------------------------|-----5-5-5-5--7-7-77--*] 
[--7----------------------------|--0--3-3-3-3--5-5-55---]
[--5--5-5-5-5-5-5--5-5-5-5-5-5--|-----------------------]

[-------------------------------|-----------------------]
[-------------------------------|-----------------------]
[*------------------------------|-----7-7-7-7--5-5-55--*]
[*-7----------------------------|-----7-7-7-7--5-5-55--*] 
[--7----------------------------|--0--5-5-5-5--3-3-33---]
[--5--5-5-5-5-5-5--5-5-5-5-5-5--|-----------------------]


[Riff E]
[----------------------|--------------------------------]
[----------------------|--------------------------------]
[*---------------------|-------------------------------*]GTR 1
[*---------------------|-------------------------------*] 
[--7--8--5----7--8--5--|--7--8--5----7-8/10-8-----------]
[----------------------|--------------------------------]

[----------------------|--------------------------------]
[----------------------|--------------------------------]
[*---------------------|-------------------------------*]
[*---------------------|-------------------------------*] 
[--7--8--5----7--8--5--|--7--8--5--7h8--5h7--3h5--2h3---]
[----------------------|--------------------------------]


[Riff F]
[---------------------------]
[---------------------------]
[*-------------------------*]GTR 1
[*---------------------x4--*] 
[--7--8--5----7--8--5-------]
[---------------------------]

[Riff G]
[----------------------|-----------------------------------------]
[----------------------|-----------------------------------------]
[*---------------------|----------------------------------------*]GTR 1
[*---------------------|------------------------5h6h7-----------*] 
[--7--8--5----7--8--5--|--7--8--5----7--5h6h7h8------------------]
[----------------------|-----------------------------------------]

[Riff H]
[----------------------------------------------------------------]
[----------------------------------------------------------------]
[*-2-2-2--2-----------------------------------------------------*]GTR 1
[*-2-2-2--2-----------------------------------------------------*] 
[--0-0-0--0------------------------------------------------------]
[----------------------------------------------------------------]
   . . .  .
[Riff I]
[----------------|---------------------------|-------]
[----------------|---------------------------|-------]
[*-2-2-2--2-2-2--|--2-2-2--2-----------------|------*]GTR 1
[*-2-2-2--2-2-2--|--2-2-2--2-----------------|--x3--*] 
[--0-0-0--0-0-0--|--0-0-0--0-------1-1--3-3--|-------]
[----------------|------------0-0------------|-------]
   . . .  . . .     . . .     . .  . .  . .
[----------------|-----------------------------------]
[----------------|-----------------------------------]
[*-2-2-2--2-2-2--|--2-2-2--2------------------------*]
[*-2-2-2--2-2-2--|--2-2-2--2------------------------*] 
[--0-0-0--0-0-0--|--0-0-0--0-------------------------]
[----------------|-----------------------------------]
   . . .  . . .     . . .  .
Добавлено: 23.03.2012
Другие материалы по этой песне:

Страница создана 23.03.2012
http://primanota.ru/crown/i-wont-follow-chords.htm
Привет, Гость.
Предлагаем пройти революционный курс по гитаре.
Подарок от PrimaNota.Ru, забирай!