PrimaNota.ru - самый крупный в мире бесплатный архив песенных текстов, аккордов, табулатур и нот


Crown - Executioner - таба, видео

Регистрация Запомнить меня
Войти через:  Facebook Google Twitter Vk Yandex Mail.ru

Crown - Executioner - таба, видео

Печатать
Просмотров: 137
Уроки эстрадного вокала в Санкт-Петербурге
The Crown - Executioner (Slayer Of The Light)
From the album Deathrace King
Normal Tuning
Corrections are more than welcome.

|------------------------------------------------------------------------------|
|-----------x\------------------x\---------------------------------------------|
|-----------x\------------------x\----------------------------------------11"--|
|-----------x\------------------x\---------------------------------------------|
|-5-4-5-4----------5-4-5-4-----------5-4-5-4----------------------5-4-5-4------|
|-3-2-3-2----------3-2-3-2-----------3-2-3-2--2-2-2-2-2-2-2-2-2-2-3-2-3-2------|



|----------------------------------------------------|
|----------------------------------------------------|
|----------------------------------------------------|
|-----------4"-7"-6"-4"-6"----4----3-----4-----3-----|
|-5-4-5-4-4"---------------7"------------------------|
|-3-2-3-2-----------------------2-2--2-2---2-2---2-2-|

|----------------------------------------------------|
|----------------------------------------------------|
|----------------------------------------------------|
|-----------4"-7"-6"-4"-6"-7"-7----7-6/7-------------|
|-5-4-5-4-4"------------------5-55-5-4/5-7----7----7-|
|-3-2-3-2--------------------------------5-55-5-55-5-|
end riff with a B5.


|---------------------------------|
|---------------------------------|
|---------------------------------|
|-4"------5----5-4/5-2----2----2--|
|-2"--2"--3----3-2/3-0-00-0-00-0--|
|-----0"----00--------------------|


              |not so sure...|
|------------------------------------------------------|
|------------------------------------------------------|
|------------------------------------------------------|
|------------------------------------------------------|
|-5-----4-------------2---2h3-5-----4------------------|
|-3-000-2-000-0-1-2-3---3-----3-000-2-000-6"-3"-5"-2"--|

|----------------------------------------------------|
|----------------------------------------------------|
|----------------------------------------------------|
|----------------------------------------------------|
|-5-----4-------------2---2h3-5-----4-----5-8-7------|
|-3-000-2-000-0-1-2-3---3-----3-000-2-000-3-6-5-0000-|

Solo riff:
G5 G#5 A5 repeat these as necessary

Solo is not tabbed - it's in Am penatonic, and it's not hard (start
out in 5th pos, and make your way up to the 17th).


|--------------------------------------------------|
|--------------------------------------------------|
|--------------------------------------------------|
|-9"-10"--9"-7"-9"-7"-5"-7"-9"-10"-9"-7"-9"--------|
|-7"-8-"--7"-5"-7"-5"-3"-5"-7"-8-"-7"-5"-7"-5-6-7--|
|-------------------------------------------3-4-5--|



|---------------------------------------------------------------------------|
|-----------x\------------------x\------------------------------------------|
|-----------x\------------------x\------------11"---------------------------|
|-----------x\------------------x\------------------------------------------|
|-5-4-5-4----------5-4-5-4-----------5-4-5-4--------5-4-5-4--4--4--4--4--4--|
|-3-2-3-2----------3-2-3-2-----------3-2-3-2--------3-2-3-2--2--2--2--2--2--|



|-------------------------------------------|
|-------------------------------------------|
|-------------------------------------------|
|-------------------------------------------|
|-5-----4-----5-6-7-----5-----4-----8-5-7-4-|
|-3-000-2-000-3-4-5-000-3-000-2-000-6-3-5-2-|

|---------------------------------------------|
|---------------------------------------------|
|---------------------------------------------|
|---------------------------------------------|
|-5-----4-----5-6-7-----5-----4-----5-8-7-----|
|-3-000-2-000-3-4-5-000-3-000-2-000-3-6-5-000-|
Добавлено: 19.06.2012
Другие материалы по этой песне:
  • Аккорды и текст

Страница создана 19.06.2012
http://primanota.ru/crown/executioner-chords.htm
Привет, Гость.
Предлагаем пройти революционный курс по гитаре.
Подарок от PrimaNota.Ru, забирай!