PrimaNota.ru - самый крупный в мире бесплатный архив песенных текстов, аккордов, табулатур и нот


Crown The Empire - Menace - таба, видео

Регистрация Запомнить меня
Войти через:  Facebook Google Twitter Vk Yandex Mail.ru

Crown The Empire - Menace - таба, видео

Печатать
Просмотров: 320
-------------------------------------------------------------------------------
                             Menace - Crown the Empire
-------------------------------------------------------------------------------
Tabbed by: AdamGuion
E-mail: AdamGuion@gmail.com

Tuning: Drop B

Yes, I know that most of their album is in C. But I swear it sounds like B to me. 
Play it both ways and decide for yourself. Also take some time to appreciate the 
violins and OTHER elements in this song. In my opinion it's one of the best produced
songs on the album. Another note, I don't know why but I kept finding different ways 
to play this so for example you may see the chorus and then under that there may be an
another way to play it. I just couldn't decide which was right.

Fades in on the five. 0:16-0:29
C |---------------------------------------------------------------------------|
G#|---------------------------------------------------------------------------|
E |---------------------------------------------------------------------------|
B |---------------------------------------------------------------------------|
F#|---------------------------------------------------------------------------|
B |-5~~~~~~/8~~7~~~~~~~~/13~~12~~~~~~~~~~~~~~~~~~-----------------------------|

0:29-0:42
Guitar One and Two do the back and forth playing.
C#|---------------------------------------------------------------------------|
G#|---------------------------------------------------------------------------|
E |---------------------------------------------------------------------------|
B |---------------------------------------------------------------------------| X2   
F#|----6--5------6--5------6--5------------------6--5-----6--5-----6---5------|      
B |-000--0----000--0----000--0----5-7-8-10---000--0---000--0---000--0---------|     
    ...  .    ...  .    ...  .               ...  .   ...  .   ...  . 
 Last ending is different play this instead |-1212-10-8-7-1010-8-7-5-|

0:43-0:55                          |
All of this is palm muted v Idk if it's accurate but it sounds good. lol
C#|---------------------------------------------------------------------------|
G#|---------------------------------------------------------------------------|
E |---------------------------------------------------------------------------|
B |--12--12--12--12--12--12--13--13--12--12--12--12--12--13--13---------------|
F#|----10--10--10--10--10--10--10--10--9---9---9---9---9---9---9--------------|
B |---------------------------------------------------------------------------|

C#|---------------------------------------------------------------------------|
G#|---------------------------------------------------------------------------|
E#|---------------------------------------------------------------------------|
B |-10--10--10--10--10--10--12--12--8--8--8--8--7--7--7--7--------------------|
F#|---7---7---7---7---7---7---7---7--6--6--6--6--6--6--6--6-------------------|
B |---------------------------------------------------------------------------|
     
Pre Chorus 0:55-1:09
C#|---------------------------------------------------------------------------|
G#|---------------------------------------------------------------------------|
E |---------------------------------------------------------------------------|
B |-5~~~~~~~5~~~7~~~~~~7~~~3~~~~~~3-------------------------------------------|
F#|-5~~~~~~~5~~~5~~~~~~5~~~3~~~~~~3~~~~1111111100000000-----------------------|
B |-5~~~~~~~5~~~4~~~~~~4~~~3~~~~~~3~~~~1111111100000000-----------------------|
                                       ................
CHORUS 1:11-1:23
C#|---------------------------------------------------------------------------|
G#|---------------------------------------------------------------------------|
E |----------------------------5----------------------------------------------|
B |-5------7------3------1-----5-X8-------------------------------------------|
F#|-5-X16--5-X16--3-X16--1-X8--3----------------------------------------------|
B |-5------4------3------1----------------------------------------------------|

OR IS IT THESE CHORDS??
C#|---------------------------------------------------------------------------|
G#|---------------------------------------------------------------------------|
E |--------10--8--7-----------------------------------------------------------|
B |-5--12--10--8--7-----------------------------------------------------------|
F#|-5--12--8---6--5-----------------------------------------------------------|
B |-5--12---------------------------------------------------------------------|


1:23-1:30
C#|------------------------------------------------------------------------------|
G#|------------------------------------------------------------------------------|
E |------------------------------------------------------------------------------|
B |------------------------------------------------------------------------------|
F#|---------------------------------5555-------------------------66666666--------|
B |-55-5-8-7-5-55-5-13-12-5-55558888-----55-5-8-7-5-55-5-13-12-5---------88887755|
    .. .       .. .                      .. .       ..        
1:30-1:38
C#|---------------------------------------------------------------------------|
G#|---------------------------------------------------------------------------|
E |---------------------------------------------------------------------------|
B |---------------------------------------------------------------------------|
F#|-00-00-0-----00-00--00-00----00-00-0-----00-00---00-00--00-00-0------------|
B |-00-00-0-----00-00--00-00----00-00-0-----00-00---00-00--00-00-0------------|
    .. .. .     .. ..  .. ..    .. .. .     .. ..   .. ..  .. .. .

1:39-1:52
C#|---------------------------------------------------------------------------|
G#|---------------------------------------------------------------------------|
E |---------------------------------------------------------------------------|
B |-5~~~~~~~5~~~7~~~~~~7~~~3~~~~~~3-------------------------------------------|
F#|-5~~~~~~~5~~~5~~~~~~5~~~3~~~~~~3~~~~1111111100000000-----------------------|
B |-5~~~~~~~5~~~4~~~~~~4~~~3~~~~~~3~~~~1111111100000000-----------------------|
                                       ................

Chorus 2 1:53-2:18
C#|---------------------------------------------------------------------------|
G#|---------------------------------------------------------------------------|
E |------------------------------------------------55555555-------------------|
B |-------------7777-------------------------------55555555-------------------|
F#|-5555--5--55-5555--4--44--443333-3-33-331111111133333333-------------------| X2
B |-5555--5--55-4444--4--44--443333-3-33-3311111111---------------------------|

Intro again. 2:18-2:31
C |---------------------------------------------------------------------------|
G#|---------------------------------------------------------------------------|
E |---------------------------------------------------------------------------|
B |---------------------------------------------------------------------------|
F#|---------------------------------------------------------------------------|X2
B |-5~~~~~~/8~~7~~~~~~~~/13~~12~~~~~~~~~~~~~~~~~~-----------------------------|

2:31-2:37
C#|-------------------------------------    -----------------  --------------------|
G#|-------------------------------------    -----------------  --------------------|
E |-------------------------------------    ---------first---  -second-------------|
B |-------------------------------------X2  ---------ending--  -ending-------------|
F#|-------------------------------------    -----------------  --------------------|
B |-13b-0-000-0-13b-0-000-0-13b-0-000-0-    888888810--------  -13131313131313312--|
        . ... .     . ... .     . ... .
2:31-2:52
C#|---------------------------------------------------------------------------|
G#|---------------------------------------------------------------------------|
E |---------------------------------------------------------------------------|
B |---------------------------------------------------------------------------|
F#|-0-0-00-0-0---0-00-0-0----0-0-00-0-0--0-0-0-00-0---------------------------|
B |-0-0-00-0-0---0-00-0-0----0-0-00-0-0--0-0-0-00-0-?bend---------------------|
    . . .. . .   . .. . .    . . .. . .  . . . .. .
C#|---------------------------------------------------------------------------|
G#|---------------------------------------------------------------------------|
E |---------------------------------------------------------------------------|
B |---------------------------------------------------------------------------|
F#|-0-0-00-0-0---0-0000---0-0-00-0-000--00-0000-------------------------------|
B |-0-0-00-0-0---0-0000---0-0-00-0-000--00-0000-------------------------------|
    . . .. . .   . ....   . . .. . ...  .. ....

2:52-3:00
Guitar One
C#|---------------------------------------------------------------------------|
G#|---------------------------------------------------------------------------|
E |---------------------------------------------------------------------------|
B |---------------------------------------------------------------------------|
F#|-------------------------------------------------------------0-0-00-0-000--|
B |-5-8-12-8-5-8-12-8-5-8-12-8-13131313131312-5-8-12-8-5-8-12-8-0-0-00-0-000--|

Guitar Two
C#|-------------------------------------------------------------------------------|
G#|-------------------------------------------------------------------------------|
E |-------------------------------------------------------------------------------|
B |-------------------------------------------------------------------------------|
F#|-----------------------------------------------------------------0-0-00-0-000--|
B |-5-8-12-8-5-8-12-8-5-8-12-8-13131313131312-7-10-14-10-7-10-14-10-0-0-00-0-000--|
                    Guitar 2 harmonizes here ^^ 

3:00-3:15
C#|---------------------------------------------------------------------------|
G#|---------------------------------------------------------------------------|
E |---------------------------------------------------------------------------|
B |-5~~~~~~~5~~~7~~~~~~7~~~3~~~~~~3-------------------------------------------|
F#|-5~~~~~~~5~~~5~~~~~~5~~~3~~~~~~3~~~~1111111100000000-----------------------|
B |-5~~~~~~~5~~~4~~~~~~4~~~3~~~~~~3~~~~1111111100000000-----------------------|
                                       ................
While one guitar does those chords, there' another faint guitar that's playing some
single notes . I can't pick out what it's playing, but if someone else could tell me
so I could fix it that would be appreciated.

Alternate Chorus 3:15-3:55
!!!!This is practically the same as Chorus except that instead of pausing between each time 
you play you mute the notes and keep strumming!!!!
C#|---------------------------------------------------------------------------|
G#|---------------------------------------------------------------------------|
E |------------------------------------------------777777777------------------|
B |-------------7777-------------------------------777777777------------------|
F#|-5555--5--55-5555--4--44--443333-3-33-3311111111555555555------------------| X4
B |-5555--5--55-4444--4--44--443333-3-33-3311111111---------------------------|


C#|-------------|
G#|-------------|
E |-------------|
B |-5~~~~~~~~~~~|
F#|-5~~~~~~~~~~~|
B |-5~~~~~~~~~~~|


Well, that certainly was a lot of work for me so please take the time to rate this
tab and comment letting me know how I did or if I made any mistakes. I myself am not 
completely sure of this tab, but it's what I'll go by until someone else puts out a perfect 
tab. There might be some mistakes that I forgot to fix so let me know if i left any of those 
in there as well.

Cheers

************************************

| /   slide up
| \   slide down
| h   hammer-on
| p   pull-off
| ~   vibrato
| +   harmonic
| x   Mute note
| b   Bend
| pb  Pre-bend
| br  Bend release
| pbr Pre-bend release
| brb Bend release bend

*************
Добавлено: 06.07.2013
Другие материалы по этой песне:

Страница создана 06.07.2013
http://primanota.ru/crown-the-empire/menace-chords.htm
Привет, Гость.
Предлагаем пройти революционный курс по гитаре.
Подарок от PrimaNota.Ru, забирай!