PrimaNota.ru - самый крупный в мире бесплатный архив песенных текстов, аккордов, табулатур и нот


Crown Of Thornz - Juggernaut - таба, видео

Регистрация Запомнить меня
Войти через:  Facebook Google Twitter Vk Yandex Mail.ru

Crown Of Thornz - Juggernaut - таба, видео

Печатать
Просмотров: 68
-------------------------------------------------------------------------------
                             JUGGERNAUT - Crown Of Thornz
-------------------------------------------------------------------------------
Tabbed by: min0r_threat
E-mail: ngrantj@yahoo.com

CROWN OF THORNZ WEBSITE: http://www.iscreamrecords.com

Tuning: Standard

As far as I know this is the only tab of this song on the internet, I hope its pretty 
accurate. Email me with comments or questions.

INTRO
e|-------------------------------------------------------------------|
B|-------------------------------------------------------------------|
G|----------------6-6-6--6-6-6--4-4-4--4-4-4-------------------------|
D|--7-7777-7-7-7--6-6-6--6-6-6--4-4-4--4-4-4--4-4-4--4-4-4-----------|
A|--7-7777-7-7-7--4-4-4--4-4-4--2-2-2--2-2-2--4-4-4--4-4-4-----------|
E|--5-5555-5-5-5------------------------------2-2-2--2-2-2-----------|

INTRO BRIDGE
e|---------------------|
B|---------------------|
G|---------------------|
D|-4444-4444-----------|
A|-4444-4444-----------|
E|-2222-2222-----------|
   ---- ---------------|

INTRO RIFF #1
e|------------------------------------------------------------|
B|------------------------------------------------------------|
G|-----------------------------------7/--444-5555-------------|
D|--666--333--777--666--3--6--22-2---7/--444-5555-------------|
A|--666--333--777--666--3--6--22-2---5/--222-3333-------------|
E|--444--111--555--444--1--4--00-0----------------------------|
                              -- -

INTRO RIFF #2
e|----------------------------------------------------------------|
B|----------------------------------------------------------------|
G|---------------------------------------7/--444-5555-------------|
D|--666--333--777--666--333--666--22-2---7/--444-5555-------------|
A|--666--333--777--666--333--666--22-2---5/--222-3333-------------|
E|--444--111--555--444--111--444--00-0----------------------------|
    ---  ---  ---  ---  ---  ---  -- -

INTRO MELODY
e|-----------------------------------------------------|
B|-----------------------------------------------------|
G|------------6-6----6--4-4----4-----------------------|
D|--7-7----7--6---6--6--4---4--4--4-4----4-------------|
A|--7---7--7--4------4--2------2--4---4--4-------------|
E|--5------5----------------------2------2-------------|

INTRO RIFF #3
e|------------------------------------------------------------|
B|------------------------------------------------------------|
G|--666--333--777--666--3--6---------4/5-4/7/4-4-5------------|
D|--xxx--xxx--xxx--xxx--x--x--22-22----------------5-4--------|
A|--444--111--555--444--1--4--22-22--------------------5------|
E|----------------------------00-00---------------------------|
                              -- --
VERSE
e|---------------------|
B|---------------------|
G|---------------------|
D|---------------------|
A|--5-33-55-33-2-3-----|
E|--3-11-33-11-0-1-----|

VERSE MELODY
e|----------------------------------------|
B|----------------------------------------|
G|----------------------------------------|
D|--5p3p2----------5p3p2------------------|
A|--------4-3-2~~--------4-3-2~~----------|
E|---------------2--------------2---------|

BRIDGE
e|-----------------------|
B|-----------------------|
G|-----------------------|
D|-----------------------|
A|--55-3333-55-3333-2-3--|
E|--33-1111-33-1111-0-1--|
    -- ---- -- ---- -

BRIDGE MELODY #1
e|-----------------------|
B|-----------------------|
G|-----------------------|
D|-----------------------|
A|--7777-6-7-------------|
E|--5555-4-5-------------|

BRIDGE MELODY #2
e|--------------------|
B|--------------------|
G|--------------------|
D|--------------------|
A|--7777--10----------|
E|--5555--8-----------|
    ----

SONG STRUCTURE:
INTRO x4
INTRO BRIDGE
INTRO RIFF #1
INTRO RIFF #2
INTRO RIFF #1
INTRO RIFF #2
INTRO MELODY x2
INTRO BRIDGE
INTRO RIFF #1
INTRO RIFF #2
INTRO RIFF #3
INTRO RIFF #2
VERSE x12
VERSE MELODY x4
VERSE x8
VERSE MELODY x4
BRIDGE x8
BRIDGE MELODY #1 x3
BRIDGE MELODY #2
BRIDGE MELODY #1 x3
BRIDGE MELODY #2
BRIDGE MELODY #1 x3
BRIDGE MELODY #2
BRIDGE MELODY #1 x3
BRIDGE x8
VERSE MELODY x4
VERSE x12
END WITH E POWER CHORD

And that's it! In my opinion the 2nd most fucking complicated NYHC song ever (after 
maybe Merauder's "Life Is Pain).
-------------------------------
| /   slide up
| \   slide down
| h   hammer-on
| p   pull-off
| ~   vibrato
| +   harmonic
| x   Mute note
Добавлено: 17.10.2013
Другие материалы по этой песне:
  • Аккорды и текст

Страница создана 17.10.2013
http://primanota.ru/crown-of-thornz/juggernaut-chords.htm
Привет, Гость.
Предлагаем пройти революционный курс по гитаре.
Подарок от PrimaNota.Ru, забирай!