PrimaNota.ru - самый крупный в мире бесплатный архив песенных текстов, аккордов, табулатур и нот


Crowded House - Now Were Getting Somewhere - аккорды и текст, таба, видео

Регистрация Запомнить меня
Войти через:  Facebook Google Twitter Vk Yandex Mail.ru

Crowded House - Now Were Getting Somewhere - аккорды и текст, таба, видео

Печатать
Просмотров: 146
Now Were Getting Somewhere
Crowded House
		   Crowded House
"Now We're Getting Somewhere"
from their self-titled first record


FIRST VERSE:
C#m
Never used to be that bad
F#m                Ab7
But neither was it great
C#m
Somewhere in the middle then
F#m         Ab7
Content and much too safe

BRIDGE:
E                                 B
Oh tell me please why it takes so long
C#m    F#m                        B
To realize when there's something wrong

CHORUS:
           E             A
Oh lay me out with your heart
          B
Now we're getting somewhere
        E           A
Push me back to the start
          B
Now we're getting someplace
        E          A
Take it out let me breathe
          B
Now we're getting somewhere
              E           A
When I'm with you I don't care
         B
Where it is I'm falling

LEAD-IN to SECOND VERSE:
---------------------------
---------------------------
---2-----2------2-----2----
---------------------------
-2---------0--2---------0--
-----0>2----------0>2------

SECOND VERSE:
C#m
There's money in the bible belt
F#m            Ab7
Hugs for daddy too
C#m
Three wishes for eternity
F#m         Ab7
We got some work to do

(repeat bridge)
(repeat chorus)

SOLO:
---------------------------------------------------------------
---5---5---7---7---9---9-9---9---10--10-10--10--9---9---7---7--
-6---6---8---8---9---9-----9---11--11-----11--9---9---8---8----
---------------------------------------------------------------
---------------------------------------------------------------
---------------------------------------------------------------

---------------------------------------------------------------
---5---5---7---7---9---9-9---9---10--10-10--10--13--13-13--13--
-6---6---8---8---9---9-----9---11--11-----11--13--13-----13----
---------------------------------------------------------------
---------------------------------------------------------------
---------------------------------------------------------------
(two times)

(repeat bridge)
(repeat chorus)
(ad-lib ending)


Mark Schnitzius
schnitzi@eola.cs.ucf.edu
University of Central Florida     
Добавлено: 27.07.2013
Другие материалы по этой песне:
  • Аккорды и текст

Страница создана 29.02.2012
http://primanota.ru/crowded-house/now-were-getting-somewhere-chords.htm
Привет, Гость.
Предлагаем пройти революционный курс по гитаре.
Подарок от PrimaNota.Ru, забирай!