PrimaNota.ru - самый крупный в мире бесплатный архив песенных текстов, аккордов, табулатур и нот


Crowded House - Kill Eye - аккорды и текст, таба, видео

Регистрация Запомнить меня
Войти через:  Facebook Google Twitter Vk Yandex Mail.ru

Crowded House - Kill Eye - аккорды и текст, таба, видео

Печатать
Просмотров: 169
Уроки эстрадного вокала в Санкт-Петербурге
Авторы музыки: Neil Finn

Kill Eye
Crowded House


Kill Eye
(N. Finn)

NOTE:

-- tune all strings down one 1/2-step to match the recording.




Bm*     E7*           Bm        E7     Bm  E7  Bm  E7
kill eye tumbling come ....
Bm      E7         Bm           E7     Bm  E7  Bm  E7
kill eye a fiery ...
Bm       E7          Bm        E7        Bm  E7  Bm  E7
kill eye he came ..
Bm      E7 Bm       E7         Bm          
kill eye halfway to hell ...

LEAD-IN TO CHORUS:
----------------||
----------------||
----------------||   [see below for tab for lead gtr. on chorus]
----------------||
---2-4-5-4-2-4--||
-4--------------||

D#7(4)*
I wanna be ...
D7(4)*
I wanna laugh ...
C#7(4)
won't you ever ...

please ...
D#7(4)
I wanna ..
D7(4)
and the sky ...
C#7(4)
I want the earth to ...
     G#        A    G#    F#
and hold me....

I wanna be ....

SOLO:

-------------|-------------|-------------------------------------|
-79-9-9-97-|-79-9-9-97-|-----------79--7--------------------|
-79-9-9-97-|-79-9-9-97-|------79--79--7--------------------|
-9-------9---|-9-------9---|-79--79----------------------------|
-------------|-------------|-79---------------9876-----------|
-------------|-------------|---------------------------10987--|
                                               |_______________|
                                            (actually a keybd. part)
-----------------------|--------||
--9-9--7-7---9-9--7-7--|-7-||
--9-9--7-7---9-9--7-7--|-7-||
-9---------------------|--------||
-----------------------|--------||
-----------------------|--------||


kill eye halfway to hell ....

D#7(4)  D7(4)  C#7(4)
D#7(4)  D7(4)  C#7(4)
D#7(4)  D7(4)  C#7(4)



Tab for lead guitar on CHORUS (including lead-in)


---------------|-------------------|--------------------|-------------------|
---------------|---------------8---|---------------7----|---------------6---|
---------------|-----6---676---6-|-----5---565----5-|-----4---454---4-|
---------------|---5---------------|---4----------------|---3---------------|
---2-4-5-4-2-4-|-------------------|--------------------|-------------------|
-4-------------|-------------------|--------------------|-------------------|
                [R]                 [R]                  [R]
__________________ _________________
|1.               |2.
------------------|----------------|
--------------6---|----------------|
----4---454---4-|----6-8-98-6-5-|    G# .... [follow chords from here]
--3---------------|--6-------------|
------------------|----------------|
------------------|----------------|
[R]               |[R]
[R] = rest for first 1/8th-beat of the measure

* UNUSUAL CHORDS

Bm      799777
E7      X79797
D#7(4)  X6568X
D7(4)   X5457X
C#7(4)  X4346X


(Transcription by Marck Bailey)


Добавлено: 27.10.2013
Другие материалы по этой песне:
  • Аккорды и текст

Страница создана 03.04.2012
http://primanota.ru/crowded-house/kill-eye-chords.htm
Привет, Гость.
Предлагаем пройти революционный курс по гитаре.
Подарок от PrimaNota.Ru, забирай!