PrimaNota.ru - самый крупный в мире бесплатный архив песенных текстов, аккордов, табулатур и нот


Crowbar - Behind The Black Horizon - текст песни, таба, видео

Регистрация Запомнить меня
Войти через:  Facebook Google Twitter Vk Yandex Mail.ru

Crowbar - Behind The Black Horizon - текст песни, таба, видео

Печатать
Просмотров: 157
Уроки эстрадного вокала в Санкт-Петербурге
Band:  CROWBAR
Album: Odd Fellows Rest
Song:  Behind The Black Horizon

Transcribed by: general maxx

Tuning: 2.5 steps down

Keys:
  h  - hammer on
  b  - bend
  r  - release bend
  p  - pull off
 / \ - slide
 ___ - palm mute


INTRO:

|---------------------------------------------|
|---------------------------------------------|
|---------------------------------------------|
|-2-4-4---2-4-4-5-5-4-4---2-4-4-2-2--3--3--5--|
|-0-2-2---0-2-2-3-3-2-2---0-2-2-0-0--3--3--3--|
|---------------------2--------------1--1--3--|

|-------------------------------------------------|
|-------------------------------------------------|
|-------------------------------------------------|
|-4---2-4-4---2-4-4-5-5-4-4---2-4-4-2-2--3--3--5--|
|-2---0-2-2---0-2-2-3-3-2-2---0-2-2-0-0--3--3--3--|
|-2-----------------------2--------------1--1--3--| 3x

(Gtr 1)
|-------------------------------------------------|
|-------------------------------------------------|
|-------------------------------------------------|
|----------------------------------------3--3--5--|
|-2~--0h2-2~--0h2-2-3-3br-2~--0h2-2p0-0--3--3--3--|
|----------------------------------------1--1--3--|

(Gtr 2)
|-------------------------------------------------|
|-------------------------------------------------|
|-------------------------------------------------|
|-4~--2h4-4~--2h4-4-5-5-4-4~--2h4-4p2-2~-------5--|
|----------------------------------------3~-3~-3--|
|----------------------------------------------3--| 2x


VERSE: (Gtr 2 is doing feedback stuff throughout)

|-------------------------------------------------|
|-------------------------------------------------|
|-------------------------------------------------|
|-4---2-4-4---2-4-4-5-5-4-4---2-4-4-2-2--3--3--5--|
|-2---0-2-2---0-2-2-3-3-2-2---0-2-2-0-0--3--3--3--|
|-2-----------------------2--------------1--1--3--| 4x


CHORUS:

|---------------------------------------------------------------------|
|---------------------------------------------------------------------|
|---------------------------------------------------------------------|
|-2--8--8------------------------2--10--10-11-10----------------------|
|-2--6--6------------------------2---8---8--9--8----------------------|
|-0--6--6------0-4-5--0-4-6-5-4~-0---6---6--7--6----0-4-5--0-4-6-5-4~-|

 ------------------------------------------------------------|
 ------------------------------------------------------------|
 ------------------------------------------------------------|
 -2--8--8------------------------2--10--10-11-10-------------|
 -2--6--6------------------------2---8---8--9--8-------------|
 -0--6--6------0-4-5--0-4-6-5-4~-0---6---6--7--6----------/\-|


(Gtr 2)
|-------------------------------------------------|
|-------------------------------------------------|
|-------------------------------------------------|
|-4~----------------------------------------------|
|-------------------------------------------------|
|-------------------------------------------------|

VERSE - 6x w/Gtr 2 feeding back


CHORUS


BRIDGE:

|--------------------------|     |-------------------------------|
|--------------------------|     |-------------------------------|
|--------------------------|     |-------------------------------|
|-5--4----4--4--3--3-4-4-4-|     |-5--4--------------------------|
|-3--4----4--4--3--3-4-4-4-|     |-3--4--4-4-4-4-4-4-3-3-3-4-4-4-|
|-3--2----2--2--1--1-2-2-2-| 3x  |-3--2--2-2-2-2-2-2-1-1-1-2-2-2-|
                                          _______________________

|--------------------------|
|--------------------------|
|--------------------------|
|-5------------------------|
|-3------------------------|
|-3--2~---2~-2~-1--1/2-2-2-| 4x


OUTRO:

|----------------------------------|      |----------------|
|----------------------------------|      |----------------|
|----------------------------------|      |----------------|
|-7-6-------10\--------------------|      |-7-6-------10\--|
|-5-4--------8\--2-2-2-2-6-6-6-5-5-|      |-5-4--------8\--|
|-----0-0-0------0-0-0-0-6-6-6-5-5-| 16x  |-----0-0-0------|
      _____      _________________              _____
Добавлено: 29.07.2012
Другие материалы по этой песне:
  • Аккорды и текст

Страница создана 01.05.2012
http://primanota.ru/crowbar/behind-the-black-horizon-chords.htm
Привет, Гость.
Предлагаем пройти революционный курс по гитаре.
Подарок от PrimaNota.Ru, забирай!