PrimaNota.ru - самый крупный в мире бесплатный архив песенных текстов, аккордов, табулатур и нот


Crowbar - 1000 Years Internal War - текст песни, таба, видео

Регистрация Запомнить меня
Войти через:  Facebook Google Twitter Vk Yandex Mail.ru

Crowbar - 1000 Years Internal War - текст песни, таба, видео

Печатать
Просмотров: 185
Band:  CROWBAR
Album: Odd Fellows Rest
Song:  1,000 Years Internal War

Transcribed by: general maxx

Tuning: 2.5 steps down

Keys:
 / \ - slide
 ___ - palm mute
  p  - pull off
  b  - bend
  h  - hammer on


INTRO:

|-----------------------------------------------------|
|-----------------------------------------------------|
|-----------------------------------------------------|
|-10--10----11-11--11----------------------12-11-10-9-|
|-10--10----11-11--11----------------------10--9-10-9-|
|--8---8-0---9--9---9-0--11/12-12-12-12-12-10--9--8-7-| 3x

|---------------------------------------------------------------|
|---------------------------------------------------------------|
|---------------------------------------------------------------|
|-10--10----11-11--11----------------------12--11--10--10--9--8-|
|-10--10----11-11--11----------------------10---9---8--10--9--8-|
|--8---8-0---9--9---9-0--11/12-12-12-12-12-10---9---8---8--7--6-|
                                          ____________________

|-----------------------------------------------------|
|-----------------------------------------------------|
|-----------------------------------------------------|
|-10--10----11-11--11----------------------12-11-10-9-|
|-10--10----11-11--11----------------------10--9-10-9-|
|--8---8-0---9--9---9-0--11/12-12-12-12-12-10--9--8-7-| 3x

|-----------------------------------------------------------------------|
|-----------------------------------------------------------------------|
|-----------------------------------------------------------------------|
|-10--10----11-11--11----------------------12--11--10--10--9--8---------|
|-10--10----11-11--11----------------------10---9---8--10--9--8-/8~---\-|
|--8---8-0---9--9---9-0--11/12-12-12-12-12-10---9---8---8--7--6---------|
                                          ____________________


VERSE:

|-----------------------------------------------------------------------|
|-----------------------------------------------------------------------|
|-----------------------------------------------------------------------|
|----------2----------------------------------2-------------------------|
|-2--2--2--2-------------------------2--2--2--2----------------/7--6--5-|
|-0--0--0--0--4p0-3--3p0-2--3--5--6--0--0--0--0--4p0-3--3p0-2-----------| 2x
  _______                            _______

|-----------------------------------------------------------------------
|-----------------------------------------------------------------------
|-----------------------------------------------------------------------
|----------2----------------------------------2-------------------------
|-2--2--2--2-------------------------2--2--2--2-------------------------
|-0--0--0--0--4p0-3--3p0-2--3--5--6--0--0--0--0--4p0-3--3p0-2--/8--7--6-
  _______                            _______

 -----------------------------------------------------------------------|
 -----------------------------------------------------------------------|
 -----------------------------------------------------------------------|
 ----------2----------------------------------2-------------------------|
 -2--2--2--2-------------------------2--2--2--2----------------/7--6--5-|
 -0--0--0--0--4p0-3--3p0-2--3--5--6--0--0--0--0--4p0-3--3p0-2-----------| 2x
  _______                            _______


CHORUS:

|-------------------------------------------------------------
|-------------------------------------------------------------
|-------------------------------------------------------------
|-/9-9-9-9-9\----2---------------/9-9-9-9-9\----2-------------
|-/7-7-7-7-7\--3---3-2-1---------/7-7-7-7-7\--3---3-2-1--/5b~-
|-------------------------3-2-1-------------------------------

 ------------------------------------------------------------|
 ------------------------------------------------------------|
 ------------------------------------------------------------|
 -/9-9-9-9-9\----2---------------/9-9-9-9-9\----2------------|
 -/7-7-7-7-7\--3---3-2-1---------/7-7-7-7-7\--3---3-2-1~---\-|
 -------------------------3-2-1------------------------------|


VERSE:

|-----------------------------------------------------------------------
|-----------------------------------------------------------------------
|-----------------------------------------------------------------------
|----------2----------------------------------2-------------------------
|-2--2--2--2-------------------------2--2--2--2----------------/7--6--5-
|-0--0--0--0--4p0-3--3p0-2--3--5--6--0--0--0--0--4p0-3--3p0-2-----------
  _______                            _______

 -----------------------------------------------------------------------|
 -----------------------------------------------------------------------|
 -----------------------------------------------------------------------|
 ----------2----------------------------------2-------------------------|
 -2--2--2--2-------------------------2--2--2--2-------------------------|
 -0--0--0--0--4p0-3--3p0-2--3--5--6--0--0--0--0--4p0-3--3p0-2--/8--7--6-| 2x
  _______                            _______

|-----------------------------------------------------------------------|
|-----------------------------------------------------------------------|
|-----------------------------------------------------------------------|
|----------2----------------------------------2-------------------------|
|-2--2--2--2-------------------------2--2--2--2----------------/7--6--5-|
|-0--0--0--0--4p0-3--3p0-2--3--5--6--0--0--0--0--4p0-3--3p0-2-----------|
  _______                            _______


CHORUS:

|-------------------------------------------------------------
|-------------------------------------------------------------
|-------------------------------------------------------------
|-/9-9-9-9-9\----2---------------/9-9-9-9-9\----2-------------
|-/7-7-7-7-7\--3---3-2-1---------/7-7-7-7-7\--3---3-2-1--/5b~-
|-------------------------3-2-1-------------------------------

 ----------------------------------------------------------
 ----------------------------------------------------------
 ----------------------------------------------------------
 -/9-9-9-9-9\----2---------------/9-9-9-9-9\----2----------
 -/7-7-7-7-7\--3---3-2-1---------/7-7-7-7-7\--3---3-2-1~---
 -------------------------3-2-1----------------------------

 -------------------------------------------------------------
 -------------------------------------------------------------
 -------------------------------------------------------------
 -/9-9-9-9-9\----2---------------/9-9-9-9-9\----2-------------
 -/7-7-7-7-7\--3---3-2-1---------/7-7-7-7-7\--3---3-2-1--/5b~-
 -------------------------3-2-1-------------------------------

 ----------------------------------------------------------------------|
 ----------------------------------------------------------------------|
 ----------------------------------------------------------------------|
 -/9-9-9-9-9\----2---------------/9-9-9-9-9\----2----------------------|
 -/7-7-7-7-7\--3---3-2-1---------/7-7-7-7-7\--3---3-2-1~-----4---------|
 -------------------------3-2-1----------------------------5---5-4-3~--|


INTERLUDE:

|---------------------------------------
|---------------------------------------
|---------------------------------------
|-2-------------------------------------
|-2-------------7/8-8-8-8-8-8\6-6-6-6-6-
|-0-------------------------------------

 ---------------------------------------|
 ---------------------------------------|
 ---------------------------------------|
 -2-------------------------------------|
 -2-------------4p0-0-5p0-0-------------|
 -0-------------------------4h5p4-3h4p0-| 2x

|---------------------------------------
|---------------------------------------
|---------------------------------------
|-/9-99-99-99-9-------------------------
|-/7-77-77-77-7-7/8-8-8-8-8-8\6-6-6-6-6-
|---------------------------------------

 ---------------------------------------|
 ---------------------------------------|
 ---------------------------------------|
 -/9-99-99-99-9-------------------------|
 -/7-77-77-77-7-4p0-0-5p0-0-------------|
 ---------------------------4h5p4-3h4p0-| 4x


OUTRO:

|-------------------------------------------------------------
|-------------------------------------------------------------
|-------------------------------------------------------------
|-/9-9-9-9-9\----2---------------/9-9-9-9-9\----2-------------
|-/7-7-7-7-7\--3---3-2-1---------/7-7-7-7-7\--3---3-2-1--/5b~-
|-------------------------3-2-1-------------------------------

 ---------------------------------------------------------------------------
 -------------------------------------------------------------------------8\
 -------------------------------------------------------------------------9\
 -/9-9-9-9-9\----2---------------/9-9-9-9-9\----2-------------------------9\
 -/7-7-7-7-7\--3---3-2-1---------/7-7-7-7-7\--3---3-2-1~-----4-------------
--------------------------3-2-1----------------------------5---5-4-3~---0---
Добавлено: 22.05.2012
Другие материалы по этой песне:
  • Аккорды и текст

Страница создана 22.05.2012
http://primanota.ru/crowbar/1000-years-internal-war-chords.htm
Привет, Гость.
Предлагаем пройти революционный курс по гитаре.
Подарок от PrimaNota.Ru, забирай!