PrimaNota.ru - самый крупный в мире бесплатный архив песенных текстов, аккордов, табулатур и нот


Crotchduster - The True Nature Of Williams - текст песни, таба, видео

Регистрация Запомнить меня
Войти через:  Facebook Google Twitter Vk Yandex Mail.ru

Crotchduster - The True Nature Of Williams - текст песни, таба, видео

Печатать
Просмотров: 82
Band: Crotchduster
Album: Big Fat Box Of Shit
Song: The True Nature Of Williams


Code:
. - palm mute           / - slide up to
\ - slide down to       x – Staccato
h - hammer on           p - pull off
, - slight palm mute    () - ghost note, sustained note
" - tremolo note        <> - Trill
L – left channel only   R – right channel only
* - see comment

Suffixes for bend
f - full bend       h - half bend
q - quarter bend    t - tap bend
^ - Hold bend       r - release bend
~ - vibrato bend

Suffixes for harmonic
ph - pinched harmonic   n – natural/artificial harmonic

Electric guitar tuning: A D A D G B E
12-string acoustic guitar tuning: E A D G B E

Riff 1 (0:00) play 4 times
|-----------------------------------------------------------------|
|-----------------------------------------------------------------|
|-----------------------------------------------------------------|
|-----------------------------------------------------------------|
|-----------------------------------------------------------2-----|
|-7--7-7-7-7--7-7-7-8-10--12-10-7--7-7-7-10-7-------4-----4---3---|
|-5--5-5-5-5--5-5-5-6-8---10-8--5--5-5-5-8--5-4ph-4---3-2-------5-|
       . .          .                . .    .

Riff 2 (0:28) play twice
|--------------------------------------------------------------|
|--------------------------------------------------------------|
|--------------------------------------------------------------|
|--------------------------------------------------------------|
|----2----2-----------2---2-7-5------2---2---------------------|
|-2--2--2-2hb--2-2--2-2-2-2-7-5-7-2--2-2-2--2-5--5-5-5-5-5-5-5-|
|-0-----0------0-0--0---0-------5-0----0----0-3--3-3-3-3-3-3-3-|
                                                   . . . . . . .

Fill 1 (0:41)
|------------------------------------------------------|
|------------------------------------------------------|
|------------------------------------------------------|
|-------------------------------------4-4-3-3----------|
|---------------------2-2-1-1-----4-4---------5-5-4----|
|-----5-5-4-4-----5-5---------5-5--------------------6-|
|-6-6---------5-5------------------------------------4-|
  . . . . . . . . . . . . . . . . . . . . . . . . .

Riff 3 (0:44) play twice
|------------------------------------------------|
|-10-10--10-10-8--8--8-8--8-5--5--5-5-7--7--7-7--|
|-11-11--11-11-9--9--9-9--9-6--6--6-6-8--8--8-8--|
|-10-10--10-10-8--8--8-8--8-5--5--5-5-7--7--7-7--|
|------------------------------------------------| CLEAN
|------------------------------------------------|
|------------------------------------------------|

Riff 4 (0:57) play twice
Note: Sounds like it's being strummed – listen closely, it's not!
|=2==2==2==2=0==0==0==0=3==3==3=4==5==5==5==5==5==|
|=1==1==1==1=1==1==1==1=3==3==3=4==5==5==5==5==5==|
|=2==2==2==2=0==0==0==0=4==4==4=5==6==6==6==6==6==| 12 STRING
|=0==0==0==0=2==2==2==2=5==5==5=6==7==7==7==7==7==| ACOUSTIC
|============3==3==3==3=5==5==5=6==7==7==7==7==7==|
|=======================3==3==3=4==5==5==5==5==5==|


Fill 2 (1:10)
|----------------------------|
|----------------------------|
|----------------------------|
|---------------------5-7----|
|---------6-8-------5-----6--|
|-------------6-7-9----------|
|-6-4-1-0--------------------|
  . . . . . . . . . . . . .


Riff 5 (1:12) play 4 times
                   [x3]
|---|--------------------|------------------|
|---|--------------------|------------------|
|---|--------------------|------------------|
|-6-|-----4---6---5h6----|-----4---6--------|
|---|--------------------|------------------|
|---|-4"----4---4-----4"-|-4"----4---4-4"---|
            .   .                .   .

Sorry to do this in two tabs, but these Latin-sounding riffs are absolutely impossible 
to hear. (1:32)

Riff 7 (1:57) play 8 times
|------------------|
|------------------|
|------------------|
|------------------|
|------------------|
|-0-0-7-6-0-0-6-8--|

Riff 8 (2:07) play twice
|=======================5==5==5=5==5==5=5=5=5==|
|=3==3==3=3==2==2=2=2=2=5==5==5=5==5==5=5=5=5==|
|=2==2==2=2==2==2=2=2=2=2==2==2=2==2==2=2=2=2==| 12 STRING
|=2==2==2=2==2==2=2=2=2=2==2==2=2==2==2=2=2=2==| ACOUSTIC
|=0==0==0=0==0==0=0=0=0=0==0==0=0==0==0=0=0=0==|
|==============================================|

Fill 1 x 1 (2:19)

End
|-----|
|-----|
|-----|
|-----|
|-----|
|-6---|
|-4---|
Добавлено: 05.10.2013
Другие материалы по этой песне:
  • Аккорды и текст

Страница создана 15.05.2012
http://primanota.ru/crotchduster/the-true-nature-of-williams-chords.htm
Привет, Гость.
Предлагаем пройти революционный курс по гитаре.
Подарок от PrimaNota.Ru, забирай!