PrimaNota.ru - самый крупный в мире бесплатный архив песенных текстов, аккордов, табулатур и нот


Crossing The Bar - Ticking Hands - таба, видео

Регистрация Запомнить меня
Войти через:  Facebook Google Twitter Vk Yandex Mail.ru

Crossing The Bar - Ticking Hands - таба, видео

Печатать
Просмотров: 56
Crossing the Bar
Ticking Hands


Intro
E|------------------------------------------------|
B|------------------------------------------------|
G|-------------8-8-8-8-8-8-4-4-4-4-4-4-/6-6-6-6-6-|
D|-6-6-6-6-6-6-8-8-8-8-8-8-4-4-4-4-4-4-/6-6-6-6-6-|
A|-6-6-6-6-6-6-6-6-6-6-6-6-2-2-2-2-2-2-/4-4-4-4-4-|
E|-4-4-4-4-4-4------------------------------------|

Verse 1 (clean and palm muted)
E|------------------------------------------------|
B|------------------------------------------------|
G|-------------8-8-8-8-8-8-4-4-4-4-4-4-/6-6-6-6-6-|
D|-6-6-6-6-6-6-8-8-8-8-8-8-4-4-4-4-4-4-/6-6-6-6-6-|
A|-6-6-6-6-6-6-6-6-6-6-6-6-2-2-2-2-2-2-/4-4-4-4-4-|
E|-4-4-4-4-4-4------------------------------------| x8

Pre-chorus

E|--5-----------8-----------|
B|--6-----------9-----------|
G|--7-----------9-----------|
D|--7-----------9-----------|
A|--5-----------7-----------|
E|--------------------------|


Chorus
E|--------------------------------------------------------------------------------|
B|--------------------10--10--10--10--10--10--------------------------------------|
G|--------------------11--11--11--11--11--11--9--9--9--9--9--9--9--9--9--9--9--9--|
D|--9--9--9--9--9--9--11--11--11--11--11--11--9--9--9--9--9--9--9--9--9--9--9--9--|
A|--9--9--9--9--9--9--9---9---9---9---9---9---7--7--7--7--7--7--7--7--7--7--7--7--|
E|--7--7--7--7--7--7--------------------------------------------------------------| x 3

E|--------------------|
B|-----------5--5--5--|
G|--6--6--6--6--6--6--|
D|--6--6--6--6--6--6--|
A|--4--4--4--4--4--4--|
E|--------------------| x 4c


Verse 2 (same as one but x4)
Pre-chorus 2
Chorus 2


Bridge:
E|--------------------------------------------------------------------------|
B|--------------------------------------------------------------------------|
G|--------------------9--9--9--9--9--9--------------------------------------|
D|--7--7--7--7--7--7--9--9--9--9--9--9--9--9--9--9--9--9--9--9--9--9--9--9--|
A|--7--7--7--7--7--7--7--7--7--7--7--7--9--9--9--9--9--9--9--9--9--9--9--9--|
E|--5--5--5--5--5--5--------------------7--7--7--7--7--7--7--7--7--7--7--7--| x 4


E|---------------------------------------------------------------------|
B|---------------------------------------------------------------------|
G|---------------------------------------------------------------------|
D|---------------------------------------------------------------------|
A|--------------------6--6--6--6--6--6--2--2--2--2--2--/4--4--4--4--4--|
E|--4--4--4--4--4--4---------------------------------------------------|


E|--------------------------------------------|
B|--------------------10--10--10--10--10--10--|
G|--------------------11--11--11--11--11--11--|
D|--9--9--9--9--9--9--11--11--11--11--11--11--|
A|--9--9--9--9--9--9--9---9---9---9---9---9---|
E|--7--7--7--7--7--7--------------------------|


E|--------------------------------------|
B|--------------------------------------|
G|--9--9--9--9--9--9--9/11--11-11/13----|
D|--9--9--9--9--------------------------|
A|--7--7--7--7--7--7--7/9---9--9/11-----|
E|--------------------------------------|

E|--------------------------------------------|
B|--------------------10--10--10--10--10--10--|
G|--------------------11--11--11--11--11--11--|
D|--9--9--9--9--9--9--11--11--11--11--11--11--|
A|--9--9--9--9--9--9--9---9---9---9---9---9---|
E|--7--7--7--7--7--7--------------------------|

E|-----------------------------------------|
B|-----------------------------------------|
G|--9--9--9--9--13--13--13\11--11--11\9----|
D|--9--9--9--9-----------------------------|
A|--7--7--7--7--11--11--11\9---9---9\7-----|
E|-----------------------------------------|

E|--------------------------------------------|
B|--------------------10--10--10--10--10--10--|
G|--------------------11--11--11--11--11--11--|
D|--9--9--9--9--9--9--11--11--11--11--11--11--|
A|--9--9--9--9--9--9--9---9---9---9---9---9---|
E|--7--7--7--7--7--7--------------------------|

E|--------------------------------------------------------------------------------|
B|--------------------10--10--10--10--10--10--------------------------------------|
G|--------------------11--11--11--11--11--11--9--9--9--9--9--9--9--9--9--9--9--9--|
D|--9--9--9--9--9--9--11--11--11--11--11--11--9--9--9--9--9--9--9--9--9--9--9--9--|
A|--9--9--9--9--9--9--9---9---9---9---9---9---7--7--7--7--7--7--7--7--7--7--7--7--|
E|--7--7--7--7--7--7--------------------------------------------------------------|


E|------------------------------------------------------------------------------------|
B|------------------------------------------------------------------------------------|
G|--6--6--6--6--6-6-6--7--7--7--7--7-7-7--9--9--9--9--9-9-9--17-17-17-17-17-17-17-17--|
D|------------------------------------------------------------------------------------|
A|--4--4--4--4--4-4-4--5--5--5--5--5-5-5--7--7--7--7--7-7-7--15-15-15-15-15-15-15-15--|
E|------------------------------------------------------------------------------------|


Chorus 3


Outro
E|--------------------------------------------------------------------------|
B|--------------------------------------------------------------------------|
G|--------------------9--9--9--9--9--9--------------------------------------|
D|--7--7--7--7--7--7--9--9--9--9--9--9--9--9--9--9--9--9--9--9--9--9--9--8--|
A|--7--7--7--7--7--7--7--7--7--7--7--7--9--9--9--9--9--9--9--9--9--9--9--8--|
E|--5--5--5--5--5--5--------------------7--7--7--7--7--7--7--7--7--7--7--6--|

E|-----------------------------------------|
B|-----------------------------------------|
G|--------------------9--9--9--9--9--9-----|
D|--7--7--7--7--7--7--9--9--9--9--9--9--9--|
A|--7--7--7--7--7--7--7--7--7--7--7--7--9--|
E|--5--5--5--5--5--5--------------------7--|
Добавлено: 22.11.2015
Другие материалы по этой песне:
  • Аккорды и текст

Страница создана 22.11.2015
http://primanota.ru/crossing-bar/ticking-hands-chords.htm
Привет, Гость.
Предлагаем пройти революционный курс по гитаре.
Подарок от PrimaNota.Ru, забирай!