PrimaNota.ru - самый крупный в мире бесплатный архив песенных текстов, аккордов, табулатур и нот


Crossing The Bar - The Great Unwashed - таба, видео

Регистрация Запомнить меня
Войти через:  Facebook Google Twitter Vk Yandex Mail.ru

Crossing The Bar - The Great Unwashed - таба, видео

Печатать
Просмотров: 85
Crossing the Bar
The Great Unwashed


Tuned half step down
(While no open notes with some other songs in 1/2 step won't have to re-tune)

Intro:
Joel (Gat 1) plays his first riff then:


Gat 2
E|-------------------------|
B|-------------------------|
G|-------------------------|
D|-------------------------|
A|-6-6--3-3--5-5-----------|
E|---------------5-5--5-5--|

Gat 1 plays riff with power chords first then:

Gat 2
E|-----------------------------|
B|-----------------------------|
G|--8-8-8-5-5-7-7--------------|
D|--8-8-8-5-5-7-7-7-7-7-7-7-7--|
A|--6-6-6-3-3-5-5-7-7-7-7-7-7--|
E|----------------5-5-5-5-5-5--|

Drums kick in:

Main riff
E|---------------------------------|
B|---------------------------------|
G|--8-8-8-5-5-7-7------------------|
D|--8-8-8-5-5-7-7-7-7-7-7-7-7------|
A|--6-6-6-3-3-5-5-7-7-7-7-7-7------|
E|----------------5-5-5-5-5-5- x 4-|

Verse 1 (Play twice)
(Joel will come in halfway with the power chords)
*Palm muted*
E|-----------------------------------|
B|-----------------------------------|
G|-----------------------------------|
D|-----------------------------------|
A|-6-6-6-3-3-3-5-5-5-----------------|
E|-------------------5-5-5-5-5-5-5-3-| x3


E|---------------------------------|
B|---------------------------------|
G|---------------------------------|
D|---------------------------------|
A|-6-6-6-3-3-3-5-5-5---------3-----|
E|-------------------5-5-3-5---5-3-|


Pre-chorus:
E|-6------8------6-----8-----------------|
B|-6------8------6-----8-----------------|
G|-7------9------7-----9-----------------|
D|-8------10-----8-----10----10-10-10-10-|
A|-8------10-----8-----10----10-10-10-10-|
E|-6------8------6-----8-----8--8--8--8--|


Chorus
E|------------------------------------------|
B|------------------------------------------|
G|-10-10-10-10-10-10-10-7-7-7-7-7-7-7-7-7-7-|
D|-10-10-10-10-10-10-10-7-7-7-7-8-8-8-8-8-8-|
A|-8--8--8--8--8--8--8--5-5-5-5-8-8-8-8-8-8-|
E|------------------------------6-6-6-6-6-6-| x4


(Joel plays little riff then Gat 2 plays main riff x4)

Verse 2
-
Prechorus
-
Chorus x 4
-
Cut out gat for bass

Solo
(The recording has 3 guitars harmonising but will play 2 live. So this one takes a 
little from both harmonies)

E|----------------------------------------------------------------------------13-15-15/17-15-13----15---|
B|-13-13-11-10-11-13b15r13----15----13-13-11-10-11-13-11-10----11----13-13-15---------------------------|
G|------------------------------------------------------------------------------------------------------|
D|------------------------------------------------------------------------------------------------------|
A|------------------------------------------------------------------------------------------------------|
E|------------------------------------------------------------------------------------------------------|


E|----------------------------------|
B|-13-13-11-10-11-13-11-10----11----|
G|----------------------------------|
D|----------------------------------|
A|----------------------------------|
E|----------------------------------|


Chorus bass
guitars finish chorus and play last chord a few times extra

Outro:


E|------------------------------|
B|------------------------------|
G|--8-8-8-5-5-7-7---------------|
D|--8-8-8-5-5-7-7-7-7-7-7-7-7---|
A|--6-6-6-3-3-5-5-7-7-7-7-7-7---|
E|----------------5-5-5-5-5-5---| x3

E|-------------------|
B|-------------------|
G|--8-8-8-5-5-5------|
D|--8-8-8-5-5-5-5--7-|
A|--6-6-6-3-3-3-5--5-|
E|--------------3--5-|
Добавлено: 22.11.2015
Вам также может быть интересно:
Другие материалы по этой песне:
  • Аккорды и текст

Страница создана 22.11.2015
http://primanota.ru/crossing-bar/great-unwashed-chords.htm
Привет, Гость.
Предлагаем пройти революционный курс по гитаре.
Подарок от PrimaNota.Ru, забирай!