PrimaNota.ru - самый крупный в мире бесплатный архив песенных текстов, аккордов, табулатур и нот


Crossfaith - Xeno - таба, видео

Регистрация Запомнить меня
Войти через:  Facebook Google Twitter Vk Yandex Mail.ru

Crossfaith - Xeno - таба, видео

Печатать
Просмотров: 70
Xeno- Crossfaith
Tuning: Drop B (B F# B E G# C#)

Hi everyone, this is the first tab I've ever made and I made this through a mixture of watching cover videos 
and tabbing by ear; I tried to listen to the song as closely as I could but I doubt its perfect. So, for 
those reasons, there's likely to be at least a few mistakes in here. I'm a bit unsure on the verses and some 
parts in the bridge- feel free to provide corrections and feedback because most
of you are probably better at this stuff than me. For some of the parts, I can't really give a specific 
rhythm and people will have to figure out themselves, although it's probably quite easy to pick up. For some
parts I've made an attempt to show the rhythms.
I'll may be try making some more tabs if I can and if this doesn't turn out to be really inaccurate, 
especially for bands which don't have a lot of tabs here on UG.

p: pull-off h: hammer-on -: palm-mute x= mute *= pinch harmonic v= vibrato b: bend string

Intro (00:00):
|------------|
|------------|
|------------|
|--0-7-5-7-0-|
|--0-7-5-7-0-|
|--0-7-5-7-0-|

|---------|
|---------|
|---------|
|---------|
|--0--0-0-|
|--0--0-0-|X2
   -  - -

Intro Riff 1 (00:10):
|------------------|--------------|
|------------------|--------------|
|------------------|--------------|
|------------0-(X3)|--------------|
|------------0-(X3)|--5-4-1-1-0-1-|
|--0-1b--0-0-0-(X3)|--5-4-1-1-0-1-|X2 Play first part X3 then play the next part by 
         - -                       omitting the last chord on the third time. 
                                   Whole riff is played twice.

                               
Intro Riff 2 (00:18):
|-------------------|--------------|
|-------------------|--------------|
|-------------------|--------------|
|-------------------|--------------|
|--------0-0--0-(X3)|--5-4-1-1-0-1-|
|--0-1b--0-0--0-(X3)|--5-4-1-1-0-1-|X2 Played in the same way as intro riff 1
         - -  -
|-----------------------|
|-----------------------|
|-----------------------|
|-0--//////////////////-|
|-0--////PICKSLIDE/////-|
|-0--//////////////////-|


Verse 1 (00:29):
|-----------------------|--------------------------|
|-----------------------|--------------------------|
|-----------------------|--------------------------|
|-----------------------|--------------------------|
|-----------------------|--------------------------|
|--0-x0-x0-x1-x1-4p1h4--|--0-x0-x0-x1-x1-9h11-9h11-|X4

Pre-chorus (00:46):
|--------------------|
|--------------------|
|--------------------|
|--3---2---3---2---5-|
|--3---2---3---2---5-|
|--3---2---3---2---5-|

Chorus (00:55):
-------------------|
|--------------|   |
|--------------|   |
|--------------|   |
|--7-----------|   |
|--7-0--3--2---|   |
|--7-0--3--2---|   | 
                   |
|--------------|   |
|--------------|   |
|--------------|   |
|--7-----------|   |
|--7-0-3--5----|   |
|--7-0-3--5----|   |
                   |----X2
|--------------|   |
|--------------|   |
|--------------|   |
|--7-----------|   |
|--7-0--3--2---|   |
|--7-0--3--2---|   |
                   |
|------|           |
|------|           |
|------|           |
|-3--2-|           |
|-3--2-|           |
|-3--2-|           |
--------------------
After chorus, one guitar plays intro riff 1 while another does a very long pickslide (Pre-verse: 01:11)

Verse 2 (01:20):
|--------------------|------------------------|
|--------------------|------------------------|
|--------------------|------------------------|
|--------------------|------------------------|
|--------------------|------------------------|
|--0-0h1p0-1-1-0-1-0-|--0-0h1p0-1-1-9h11-9h11-|X2

|--------------------|------------------------|
|--------------------|------------------------|
|--------------------|------------------------|
|--------------------|------------------------|
|--0-----------------|--0---------------------|
|--0-0h1p0-1-1-0-1-0-|--0-0h1p0-1-1-9h11-9h11-|X2

Play Chorus (01:38) again, but on the second run of the chorus on the third part, play 7*b (on F# string) 
instead of 7 0.

Bridge part 1 (01:54):
Guitar 1:
|--------------------------|---------------------------|
|--------------------------|---------------------------|
|--------------------------|---------------------------|
|--------------------------|---------------------------|
|--0------3-------5------7-|--0------3-------5-------7-|
|--0------3-------5------7-|--0------3-------5-------7-|
|Guitar 2:
|-------------------------------------------------------|
|-----------------8--11--10-------------------8--11--10-|
|-----------------x--x---x-----10-----9-------x--x---x--|
|-----------------5--8---7-----x------x-------5--8---7--|
|------------------------------8------7-----------------|
|-------------------------------------------------------|

Bridge part 2 (02:11):
|------------------------------|----------------------|-----------
|------------------------------|----------------------|           |
|------------------------------|----------------------|           |
|--7-----7-----7-----7---------|----------------------|           |
|--5-5-5-5-5-5-5-5-5-5-5-5-7-5-|--2-----2------5--5-7-|           | 
|--------------------------7-5-|--2-2-2-2-2-2--5--5-7-|           |
     - -   - -   - -   - -          - -   - -                     |X2 (5) plays over the first C# chord
|---------------------------------|--------------------------|    |play the last chord on the second 
|---------------------------------|--------------------------|    | time. You could probably play 00 
|--------------------------7-5----|--------------------------|    |instead of 57- both sound fairly 
|--7-----7-----7-----7---------7--|(5)-------------------0---|    |accurate.
|--5-5-5-5-5-5-5-5-5-5-5-5--------|--2-----2------5--5-7-0---|    |
|---------------------------------|--2-2-2-2-2-2--5--5-7-0---|----    
     - -   - -   - -   - -             - -   - - 

Bridge part 3 (guitar comes in at 03:11):
|--------------------|
|--------------------|
|--------------------|
|-//////////////////-|
|-////PICKSLIDE/////-|
|-//////////////////-|

Guitar 1:
|---------------------------------------------------------------------------|
|---------------------------------------------------------------------------|
|---------------------------------------------------------------------------|
|--------3------------------------------------------------------------------|
|--0-----1-------------3----7-----8-----10--0-------0-------0-------0-------|
|--0-------------------3----7-----8-----10--0-0-0-0-0-0-0-0-0-0-0-0-0-0-0-0-|X3
|Guitar 2:                                    - - -   - - -   - - -   - - -
|------------------------------------------|
|--15----11-13--10-11--13---11---15-----17-|
|--x-----x--x---x--x---x----x----x------x--|
|--12----8--10--7--8---10---8----12-----14-|
|------------------------------------------|
|------------------------------------------|X1 (play from the third run of guitar 1's riff up until 
open chords)

Outro (03:54):
|--------------------------------|
|--------------------------------|
|--------------------------------|
|--------------------------------|
|--0-------0-------0-------0-0-0-|
|--0-0-0-0-0-0-0-0-0-0-0-0-0-0-0-|X4
     - - -   - - -   - - - 

Thanks for checking out this tab- hopefully, it's at least a bit helpful. I'm open to constructive feedback 
and corrections.
Добавлено: 24.04.2016
Другие материалы по этой песне:
  • Аккорды и текст

Страница создана 24.04.2016
http://primanota.ru/crossfaith/xeno-chords.htm
Привет, Гость.
Предлагаем пройти революционный курс по гитаре.
Подарок от PrimaNota.Ru, забирай!