PrimaNota.ru - самый крупный в мире бесплатный архив песенных текстов, аккордов, табулатур и нот


Crossfaith - Snake Code - таба, видео

Регистрация Запомнить меня
Войти через:  Facebook Google Twitter Vk Yandex Mail.ru

Crossfaith - Snake Code - таба, видео

Печатать
Просмотров: 237
Уроки эстрадного вокала в Санкт-Петербурге
This is my first Tab. I have done this by ear so please put corrections in the comments box.
Snake Code by Crossfaith, SIC band! Please go and support them, they deserve it.
Drop C tuning.

The chorus could be played with the open C sting in between the notes on the G string to 
make it heavier.



Intro:
d|-----------------------------------------------------------------------------|
A|-----------------------------------------------------------------------------|
F|-----------------------------------------------------------------------------|
C|-----------------------------------------------------------------------------|
G|-----------------------------------------------------------------------------|
C|-12-0--0-0-0-3--0-3-0-3-5--7--0-7-0-7-10--5--5-5-5--10-10-10-----------------|

d|------------------------------------------------------------------------------|
A|------------------------------------------------------------------------------|
F |-----------------------------------------------------------------------------|
C|------------------------------------------------------------------------------|
G|------------------------------------------------------------------------------|
C|-12-0--0-0-0-3--0-3-0-3-5--7--7-7-7-7-7-7-7-3-3-3-3-3-3-3---------------------|

d|-------------------|
A|-------------------|
F|-------------------|
C|--12-12-12-12-12---|
G|--12-12-12-12-12---|
C|--12-12-12-12-12---|

VERSE:
d|-----------------------------------------------------------------------------|
A|-----------------------------------------------------------------------------|
F|-----------------------------------------------------------------------------|
C|-----------------------------------------------------------------------------|
G|-----------------------------------------------------------------------------|
C|-12-0--0-0-0-3--0-3-0-3-5--7--0-7-0-7-10--5--5-5-5--10-10-10-----------------|

d|------------------------------------------------------------------------------|
A|------------------------------------------------------------------------------|
F |-----------------------------------------------------------------------------|
C|------------------------------------------------------------------------------|
G|------------------------------------------------------------------------------|
C|-12-0--0-0-0-3--0-3-0-3-5--7--7-7-7-7-7-7-7-3-3-3-3-3-3-3---------------------|

d|-----------------------------------------------------------------------------|
A|-----------------------------------------------------------------------------|
F|-----------------------------------------------------------------------------|
C|-----------------------------------------------------------------------------|
G|-----------------------------------------------------------------------------|
C|-12-0--0-0-0-3--0-3-0-3-5--7--0-7-0-7-10--5--5-5-5--10-10-10-----------------|

d|------------------------------------------------------------------------------|
A|------------------------------------------------------------------------------|
F |-----------------------------------------------------------------------------|
C|------------------------------------------------------------------------------|
G|------------------------------------------------------------------------------|
C|-12-0--0-0-0-3--0-3-0-3-5--7--7-7-7-7-7-7-7-3-3-3-3-3-3-3---------------------|


For this part you are going to have to listen to the right pattern. I will point out 
some of the notes played. This is not the pattern. Some is palm muted an some is open ( you 
should be able to figure it out).

d|-------------------------------------------------------------------------------|
A|-------------------------------------------------------------------------------|
F |-----------------------------5-/-7--------------------------------------------|
C|--0--------------1-----------x-/-x---------------------------------------------|
G|--0-----1-2------1-----------3-/-5---------------------------------------------|
C|--0--------------1-------------------------------------------------------------|


Pre-chorus
d|-------------------|
A|-------------------|
F|-------------------|
C|--12-12-12-12-12---|
G|--12-12-12-12-12---|
C|--12-12-12-12-12---|

Chorus
d|------------------------------------------------------------------------------|
A|------------------------------------------------------------------------------|
F |-----------------------------------------------------------------------------|
C|--0----------3--3-2-3---8--------------5--------------------------------------|
G|--0--5-3-5---3----------8---12-8-10---5---8-7-8-------------------------------|
C|--0----------3----------8--------------5--------------------------------------|

d|------------------------------------------------------------------------------|
A|------------------------------------------------------------------------------|
F |-----------------------------------------------------------------------------|
C|--0----------3--3-2-3---8--------------5--------------------------------------|
G|--0--5-3-5---3----------8---12-8-10---5---8-7-8-------------------------------|
C|--0----------3----------8--------------5--------------------------------------|

d|------------------------------------------------------------------------------|
A|------------------------------------------------------------------------------|
F |-----------------------------------------------------------------------------|
C|--0----------3--3-2-3---8--------------5--------------------------------------|
G|--0--5-3-5---3----------8---12-8-10---5---8-7-8-------------------------------|
C|--0----------3----------8--------------5--------------------------------------|

d|------------------------------------------------------------------------------|
A|------------------------------------------------------------------------------|
F |-----------------------------------------------------------------------------|
C|--0----------3--3-2-3---8--------------5--------------------------------------|
G|--0--5-3-5---3----------8---12-8-10---5---8-7-8-------------------------------|
C|--0----------3----------8--------------5--------------------------------------|

Break down

d|-------------------------------------------|
A|-------------------------------------------|
F|-------------------------------------------|
C|--0---0-0-0---0---0---0---0---0---0---0----|
G|--0---0-0-0---0---0---0---0---0---0---0----|
C|--0---0-0-0---0---0---0---0---0---0---0----|    ( x3 )



d|-----------------------------------------------------------------------------|
A|-----------------------------------------------------------------------------|
F|-----------------------------------------------------------------------------|
C|--0---0-0-0---0---0---0---0---0---1---1---1----------------------------------|
G|--0---0-0-0---0---0---0---0---0---1---1---1----------------------------------|
C|--0---0-0-0---0---0---0---0---0---1---1---1----------------------------------|

Repeat ^

Chorus
d|------------------------------------------------------------------------------|
A|------------------------------------------------------------------------------|
F |-----------------------------------------------------------------------------|
C|--0----------3--3-2-3---8--------------5--------------------------------------|
G|--0--5-3-5---3----------8---12-8-10---5---8-7-8-------------------------------|
C|--0----------3----------8--------------5--------------------------------------|

d|------------------------------------------------------------------------------|
A|------------------------------------------------------------------------------|
F |-----------------------------------------------------------------------------|
C|--0----------3--3-2-3---8--------------5--------------------------------------|
G|--0--5-3-5---3----------8---12-8-10---5---8-7-8-------------------------------|
C|--0----------3----------8--------------5--------------------------------------|

d|------------------------------------------------------------------------------|
A|------------------------------------------------------------------------------|
F |-----------------------------------------------------------------------------|
C|--0----------3--3-2-3---8--------------5--------------------------------------|
G|--0--5-3-5---3----------8---12-8-10---5---8-7-8-------------------------------|
C|--0----------3----------8--------------5--------------------------------------|

d|------------------------------------------------------------------------------|
A|------------------------------------------------------------------------------|
F |-----------------------------------------------------------------------------|
C|--0----------3--3-2-3---8--------------5--------------------------------------|
G|--0--5-3-5---3----------8---12-8-10---5---8-7-8-------------------------------|
C|--0----------3----------8--------------5--------------------------------------|


Bridge
d|------------------------------------------------------------------------------|
A|------------------------------------------------------------------------------|
F |-----------------------------------------------------------------------------|
C|--0--3--5--8--7--10-----------------------------------------------------------|
G|--0--3--5--8--7--10-----------------------------------------------------------|
C|--0--3--5--8--7--10-----------------------------------------------------------|

d|----------------------------|
A|----------------------------|
F |---------------------------|
C|--12--3--5--8--7--10--------|
G|--12--3--5--8--7--10--------|
C|--12--3--5--8--7--10--------|  x3

Breakdown 2

d|-----------|
A|-----------|
F|-----------|
C|--0----0---|
G|--0----0---|
C|--0----0---|

d|------------------------------------------------|
A|------------------------------------------------|
F |-----------------------------------------------|
C|--0---*0-*0-----8----8--10-10---10-10-----------|
G|--0---*0-*0-----8----8--10-10---10-10-----------|
C|--0---*0-*0-----8----8--10-10---10-10-----------|

d|------------------------------------------------|
A|------------------------------------------------|
F |-----------------------------------------------|
C|--0---*0-*0-----8----8--10-10-------------------|
G|--0---*0-*0-----8----8--10-10-------------------|
C|--0---*0-*0-----8----8--10-10-------------------|  x5



Intro again:
d|-----------------------------------------------------------------------------|
A|-----------------------------------------------------------------------------|
F|-----------------------------------------------------------------------------|
C|-----------------------------------------------------------------------------|
G|-----------------------------------------------------------------------------|
C|-12-0--0-0-0-3--0-3-0-3-5--7--0-7-0-7-10--5--5-5-5--10-10-10-----------------|

d|------------------------------------------------------------------------------|
A|------------------------------------------------------------------------------|
F |-----------------------------------------------------------------------------|
C|------------------------------------------------------------------------------|
G|------------------------------------------------------------------------------|
C|-12-0--0-0-0-3--0-3-0-3-5--7--7-7-7-7-7-7-7-0--3--0--3--5-5-5-----------------|



d|-----------------------------------------------------------------------------|
A|-----------------------------------------------------------------------------|
F|-----------------------------------------------------------------------------|
C|-----------------------------------------------------------------------------|
G|-----------------------------------------------------------------------------|
C|-12-0--0-0-0-3--0-3-0-3-5--7--0-7-0-7-10--5--5-5-5--10-10-10-----------------|

d|------------------------------------------------------------------------------|
A|------------------------------------------------------------------------------|
F |-----------------------------------------------------------------------------|
C|------------------------------------------------------------------------------|
G|------------------------------------------------------------------------------|
C|-12-0--0-0-0-3--0-3-0-3-5--7--7-7-7-7-7-7-7-3-3-3-3-3-3-3---------------------|

Chorus again
d|------------------------------------------------------------------------------|
A|------------------------------------------------------------------------------|
F |-----------------------------------------------------------------------------|
C|--0----------3--3-2-3---8--------------5--------------------------------------|
G|--0--5-3-5---3----------8---12-8-10---5---8-7-8-------------------------------|
C|--0----------3----------8--------------5--------------------------------------|

d|------------------------------------------------------------------------------|
A|------------------------------------------------------------------------------|
F |-----------------------------------------------------------------------------|
C|--0----------3--3-2-3---8--------------5--------------------------------------|
G|--0--5-3-5---3----------8---12-8-10---5---8-7-8-------------------------------|
C|--0----------3----------8--------------5--------------------------------------|

d|------------------------------------------------------------------------------|
A|------------------------------------------------------------------------------|
F |-----------------------------------------------------------------------------|
C|--0----------3--3-2-3---8--------------5--------------------------------------|
G|--0--5-3-5---3----------8---12-8-10---5---8-7-8-------------------------------|
C|--0----------3----------8--------------5--------------------------------------|

d|------------------------------------------------------------------------------|
A|------------------------------------------------------------------------------|
F |-----------------------------------------------------------------------------|
C|--0----------3--3-2-3---8--------------5--------------------------------------|
G|--0--5-3-5---3----------8---12-8-10---5---8-7-8-------------------------------|
C|--0----------3----------8--------------5--------------------------------------| x2


d|-------------------|
A|-------------------|
F|-------------------|
C|--12-12-12-12--12\-|
G|--12-12-12-12--12\-|
C|--12-12-12-12--12\-|



Hope it helps.

************************************

| /   slide up
| \   slide down
| h   hammer-on
| p   pull-off
| ~   vibrato
| +   harmonic
| x   Mute note
| b   Bend
|  *   Palm mute

************************************
Добавлено: 09.08.2013
Другие материалы по этой песне:

Страница создана 09.08.2013
http://primanota.ru/crossfaith/snake-code-chords.htm
Привет, Гость.
Предлагаем пройти революционный курс по гитаре.
Подарок от PrimaNota.Ru, забирай!