PrimaNota.ru - самый крупный в мире бесплатный архив песенных текстов, аккордов, табулатур и нот


Crossfaith - Scarlett - таба, видео

Регистрация Запомнить меня
Войти через:  Facebook Google Twitter Vk Yandex Mail.ru

Crossfaith - Scarlett - таба, видео

Печатать
Просмотров: 92
Song - Scarlett
Band - Crossfaith
Tuning - Drop B

Intro


C#|-----------------------------------------------|
G#|-----------------------------------------------|
E |-----------------------------------------------|
B |-----------------------------------------------|
F#|-----------------------------------------------|
B |--------0-----0-----0-----0-----0----0----0----|      x4

C#|-----------------------------------------------|
G#|-----------------------------------------------|
E |------------12-12-12-12-12-12-12-12-12-12-12---|
B |------------12-12-12-12-12-12-12-12-12-12-12---|
F#|------------10-10-10-10-10-10-10-10-10-10-10---|    4 times
B |----0------------------------------------------|

Chorus


C#|----------------------------------------------------------------------------------|
G#|----------------------------------------------------------------------------------|
E |----7-7-7-7-7--10-10-10-10-10--5-5-5-5-5-5-5-5--3-3-3-3-3-3-3-3--5-5-5-5-5-5-5-5--|
B |----7-7-7-7-7--10-10-10-10-10--5-5-5-5-5-5-5-5--3-3-3-3-3-3-3-3--5-5-5-5-5-5-5-5--|
F#|----5-5-5-5-5--8--8--8--8--8---3-3-3-3-3-3-3-3--1-1-1-1-1-1-1-1--3-3-3-3-3-3-3-3--|
B |----------------------------------------------------------------------------------|


   -----------------------------------------------|
   -----------------------------------------------|
   ------------12-12-12-12-12-12-12-12-12-12-12---|
   ------------12-12-12-12-12-12-12-12-12-12-12---|
   ------------10-10-10-10-10-10-10-10-10-10-10---|
   ----0------------------------------------------|

Verse


C#|-----------------------------------------------------------------------------|
G#|-----------------------------------------------------------------------------|
E |-----------------------------------------------------------------------------|
B |-----------------------------------------------------------------------------|
F#|-----------------------------------------------------------------------------|
B |--------0---0---0---5---5---5---7---7---7---3---3---3---0---0---0---0--0--0--|   3 times

Chorus


C#|----------------------------------------------------------------------------------|
G#|----------------------------------------------------------------------------------|
E |----7-7-7-7-7--10-10-10-10-10--5-5-5-5-5-5-5-5--3-3-3-3-3-3-3-3--5-5-5-5-5-5-5-5--|
B |----7-7-7-7-7--10-10-10-10-10--5-5-5-5-5-5-5-5--3-3-3-3-3-3-3-3--5-5-5-5-5-5-5-5--|
F#|----5-5-5-5-5--8--8--8--8--8---3-3-3-3-3-3-3-3--1-1-1-1-1-1-1-1--3-3-3-3-3-3-3-3--|
B |----------------------------------------------------------------------------------|


   -----------------------------------------------|
   -----------------------------------------------|
   ------------12-12-12-12-12-12-12-12-12-12-12---|
   ------------12-12-12-12-12-12-12-12-12-12-12---|
   ------------10-10-10-10-10-10-10-10-10-10-10---|
   ----0------------------------------------------|    2 times


" Wake me up from this land... "

Verse 2


C#|--------------------------------------------------------------------|
G#|--------------------------------------------------------------------|
E |------7-7-7-7-7-7-7-7-----7-7-7-7-7-7-7-7-----7-7-7-7-5-5-5-10------|
B |------7-7-7-7-7-7-7-7-----7-7-7-7-7-7-7-7-----7-7-7-7-5-5-5-10------|
F#|------5-5-5-5-5-5-5-5-----5-5-5-5-5-5-5-5-----5-5-5-5-3-3-3-8-------|
B |---0-------------------0-------------------0------------------------|

" I'm gonna save you.. "

C#|--------------------------------------------------------------------|
G#|--------------------------------------------------------------------|
E |------7-7-7-7-7-7-7-7-----7-7-7-7-7-7-7-7-----7-7-7-7-5--10-7-7-----|
B |------7-7-7-7-7-7-7-7-----7-7-7-7-7-7-7-7-----7-7-7-7-5--10-7-7-----|
F#|------5-5-5-5-5-5-5-5-----5-5-5-5-5-5-5-5-----5-5-5-5-3--8--5-5-----|
B |---0-------------------0-------------------0------------------------|


C#|------------------------------------------------------------------------------------|
G#|------------------------------------------------------------------------------------|
E |------7-7-7-7-7-7-7-7-----7-7-7-7-7-7-7-7-----7-7-7-7-5--10-10-10-----5-5-5-10-7-7--|
B |------7-7-7-7-7-7-7-7-----7-7-7-7-7-7-7-7-----7-7-7-7-5--10-10-10-----5-5-5-10-7-7--|
F#|------5-5-5-5-5-5-5-5-----5-5-5-5-5-5-5-5-----5-5-5-5-3--8--8--8------3-3-3-8--5-5--|
B |---0-------------------0-------------------0------------------------0---------------|


Final chorus

" I won't forget all you crying.. "

C#|----------------------------------------------------------------------------------|
G#|----------------------------------------------------------------------------------|
E |----7-7-7-7-7--10-10-10-10-10--5-5-5-5-5-5-5-5--3-3-3-3-3-3-3-3--5-5-5-5-5-5-5-5--|
B |----7-7-7-7-7--10-10-10-10-10--5-5-5-5-5-5-5-5--3-3-3-3-3-3-3-3--5-5-5-5-5-5-5-5--|
F#|----5-5-5-5-5--8--8--8--8--8---3-3-3-3-3-3-3-3--1-1-1-1-1-1-1-1--3-3-3-3-3-3-3-3--|
B |----------------------------------------------------------------------------------|


   -----------------------------------------------|
   -----------------------------------------------|
   ------------12-12-12-12-12-12-12-12-12-12-12---|
   ------------12-12-12-12-12-12-12-12-12-12-12---|
   ------------10-10-10-10-10-10-10-10-10-10-10---|
   ----0------------------------------------------|


Outro


C#|-----------------------------------------------|
G#|-----------------------------------------------|
E |------------12-12-12-12-12-12-12-12-12-12-12---|
B |------------12-12-12-12-12-12-12-12-12-12-12---|
F#|------------10-10-10-10-10-10-10-10-10-10-10---|
B |----0------------------------------------------|

Such a good song! I hope you like it :)

Cheers
Добавлено: 29.10.2015
Другие материалы по этой песне:
  • Аккорды и текст

Страница создана 29.10.2015
http://primanota.ru/crossfaith/scarlett-chords.htm
Привет, Гость.
Предлагаем пройти революционный курс по гитаре.
Подарок от PrimaNota.Ru, забирай!