PrimaNota.ru - самый крупный в мире бесплатный архив песенных текстов, аккордов, табулатур и нот


Crossfaith - Devils Party - таба, видео

Регистрация Запомнить меня
Войти через:  Facebook Google Twitter Vk Yandex Mail.ru

Crossfaith - Devils Party - таба, видео

Печатать
Просмотров: 217
Уроки эстрадного вокала в Санкт-Петербурге
Crossfaith
Tabbed by: vppark2
E-mail: linkinp751@gmail.com

Tuning: Drop B

Decided to see if YouTube had any covers for this song, and there's quite a few, so I'm surprised no one has
tabbed this out yet.

C#|-----------------------------------------------------------------------------------|
G#|-----------------------------------------------------------------------------------|
E |-----------------------------------------------------------------------------------|x4
B |0-3-0-6-3-5------------------------------------------------------------------------|
F#|0-3-0-6-3-5------------------------------------------------------------------------|
B |0-3-0-6-3-5------------------------------------------------------------------------|

C#|------------------------|
G#|------------------------|
E |------------------------|x4
B |0-3-0-6-3-5-99-8-6-8-6--|
F#|0-3-0-6-3-5-99-8-6-8-6--|
B |0-3-0-6-3-5-99-8-6-8-6--|

C#|---------------------------------------------------------------------------------|
G#|---------------------------------------------------------------------------------|
E |---------------------------------------------------------------------------------|
B |---------------------------------------------------------------------------------|
F#|--------------6-5----------------------------------------------------------------|x2
B |0-0-0-0-0-3-6--------------------------------------------------------------------|
   . . . . . . .

Pre-chorus

C#|------------------------------|
G#|------------------------------|
E |------------------------------|
B |7----8----5----7----10101010--|
F#|7----8----5----7----10101010--|
B |7----8----5----7----10101010--|
                        10's
C#|----------------------------|
G#|----------------------------|
E |----------------------------|x2
B |77777--5555--33333--22--55--|
F#|77777--5555--33333--22--55--|
B |77777--5555--33333--22--55--|
   ddddu  dudd  ddddu  dd  dd
C#|--------------------------------------------------------------------------------|
G#|--------------------------------------------------------------------------------|
E |--------------------------------------------------------------------------------|
B |--------------------------------------------------------------------------------|
F#|--------------------------------------------------------------------------------|
B |17\-----------------------------------------------------------------------------|

C#|---------------------------------------------------------------------------------|
G#|---------------------------------------------------------------------------------|
E |---------------------------------------------------------------------------------|
B |---------------------------------------------------------------------------------|
F#|--------------6-5----------------------------------------------------------------|x2
B |0-0-0-0-0-3-6--------------------------------------------------------------------|
   . . . . . . .

Pre-chorus

C#|------------------------------|
G#|------------------------------|
E |------------------------------|
B |7----8----5----7----10101010--|
F#|7----8----5----7----10101010--|
B |7----8----5----7----10101010--|
                        10's
C#|----------------------------|
G#|----------------------------|
E |----------------------------|x2
B |77777--5555--33333--22--55--|
F#|77777--5555--33333--22--55--|
B |77777--5555--33333--22--55--|
   ddddu  dudd  ddddu  dd  dd
C#|----------------------------------------|
G#|----------------------------------------|
E |-----------------------87---------------|
B |7\--0000000--7\--00000-87--7\--0000000--|
F#|7\--0000000--7\--00000-65--7\--0000000--|
B |7\--0000000--7\--00000-----7\--0000000--|
       .......      .....         .......
C#|-------------------------------|
G#|-------------------------------|x2
E |-----------------------87------|
B |7\--0000000--7\--00000-87--7\--|
F#|7\--0000000--7\--00000-65--7\--|
B |7\--0000000--7\--00000-----7\--|
       .......      .....
C#|--------------------|
G#|--------------------|
E |--------------------|
B |000-000--8-7-5-2-3--|
F#|000-000--8-7-5-2-3--|
B |000-000--8-7-5-2-3--|
   ... ...
C#|-------------------------------|
G#|-------------------------------|x2
E |-----------------------87------|
B |7\--0000000--7\--00000-87--7\--|
F#|7\--0000000--7\--00000-65--7\--|
B |7\--0000000--7\--00000-----7\--|
       .......      .....
C#|--------------------|
G#|--------------------|
E |--------------------|
B |000-000--8-7-5-2-3--|
F#|000-000--8-7-5-2-3--|
B |000-000--8-7-5-2-3--|
   ... ...
C#|----------------------------|
G#|----------------------------|
E |----------------------------|x4
B |77777--5555--33333--22--55--|
F#|77777--5555--33333--22--55--|
B |77777--5555--33333--22--55--|
   ddddu  dudd  ddddu  dd  dd
C#|-----------------------------------------------------------------------------------|
G#|-----------------------------------------------------------------------------------|
E |-----------------------------------------------------------------------------------|x4
B |0-3-0-6-3-5------------------------------------------------------------------------|
F#|0-3-0-6-3-5------------------------------------------------------------------------|
B |0-3-0-6-3-5------------------------------------------------------------------------|

************************************

| /   slide up
| \   slide down
| h   hammer-on
| p   pull-off
| ~   vibrato
| +   harmonic
| x   Mute note
| b   Bend
| pb  Pre-bend
| br  Bend release
| pbr Pre-bend release
| brb Bend release bend

************************************
Добавлено: 24.04.2016
Вам также может быть интересно:
Другие материалы по этой песне:
  • Аккорды и текст

Страница создана 24.04.2016
http://primanota.ru/crossfaith/devils-party-chords.htm
Привет, Гость.
Предлагаем пройти революционный курс по гитаре.
Подарок от PrimaNota.Ru, забирай!