PrimaNota.ru - самый крупный в мире бесплатный архив песенных текстов, аккордов, табулатур и нот


Crossfade - Starless - текст песни, таба, бас-таба, видео

Регистрация Запомнить меня
Войти через:  Facebook Google Twitter Vk Yandex Mail.ru

Crossfade - Starless - текст песни, таба, бас-таба, видео

Печатать
Просмотров: 383
Starless from Crossfade
Tuning: BEADGBe (YES this is the tuning Ed plays)

Intro
--------------------|
--------------------|
--------------------|
--------------------|X3
--------------------|
--------------------|
-2-02-02-32-02022---|

First end:
--------------------|
--------------------|
--------------------|
--------------------|
--------------------|
----------2---------|
-2-02-02-3--02022---|

Second end(stop quick):
--------------------|
--------------------|
--------------------|
--------------------|
--------------------|
--------------------|
-2------------------|

Verse
-0---0---0---0----------7----7---7-|
---0---0---0---0-----0------0------|
------------------0--------0---0---|
-----------------------------------|
-----------------------------------|
-----------------------------------|
-----------------------------------|

Pre-chorus(heavy wah)
-------------------------------|
-------------------------------|
-------------------------------|
-------------------------------|
-------------------------------|
---------2-------------------2-|
-2-2-2-22--2-2-2-220-2-2-2-22--|

First end:
--------------------|
--------------------|
--------------------|
--------------------|
--------------------|
--------------------|
-2-2-2-223----------|

2nd end(stop quick):
--------------------|
--------------------|
--------------------|
--------------------|
--------------------|
--------------------|
-2------------------|

Chorus(maybe play around with endings)
----------------------------|
----------------------------|
----------------------------|
----------------------------|
-4444444-3-333-333----------|
-4444444-3-333-333-22222222-|
-2222222-1-111-111-00000000-|

First ending:
--------------------|
--------------------|
--------------------|
--------------------|
--------------------|
-444-333-22---------|
-222-111-00---------|

Second ending:
--------------------|
--------------------|
--------------------|
--------------------|
--------------------|
-777-555-44---------|
-555-333-22---------|

-play Intro(short, listen for it)
-play Verse
-play Pre-chorus
-play Chorus

-The interlude is the first, with a pause for the bass for a bit.

-Play Chorus
-play Intro(short version again)
Добавлено: 21.06.2012
Другие материалы по этой песне:
  • Аккорды и текст

Страница создана 14.05.2012
http://primanota.ru/crossfade/starless-chords.htm
Привет, Гость.
Предлагаем пройти революционный курс по гитаре.
Подарок от PrimaNota.Ru, забирай!