PrimaNota.ru - самый крупный в мире бесплатный архив песенных текстов, аккордов, табулатур и нот


Crossfade - Invincible - аккорды и текст, таба, видео

Регистрация Запомнить меня
Войти через:  Facebook Google Twitter Vk Yandex Mail.ru

Crossfade - Invincible - аккорды и текст, таба, видео

Печатать
Просмотров: 320
Уроки эстрадного вокала в Санкт-Петербурге
Invincible
Crossfade
Artist: Crossfade
Song: Invincible
Album: Falling Away (2006)
Tuning: Standard 
Email: LiquIdfir3@msn.com
This song can be played acoustic it sounds very nice, kinda haunted.
That's how i tabbed it.  
*Rock On*


Intro: (not complete) 
e|----------------|
B|----------------|
G|-----2-----2b---|
D|----0-----0-----|
A|----------------|
E|--3----3--------|

Chords used during verse:
e|--3---3---3-----0----x--|
B|--3---3---3-----3----4--|
G|--0---0---0-----0----3--|
D|--0---0---2-----2----0--|
A|--2---x---2-----3----x--|
E|--3---3---x-----x----x--| 
   G   G*   Em7*  C9  Dsus 
Добавлено: 06.04.2012
Другие материалы по этой песне:

Страница создана 23.03.2012
http://primanota.ru/crossfade/invincible-chords.htm
Привет, Гость.
Предлагаем пройти революционный курс по гитаре.
Подарок от PrimaNota.Ru, забирай!