PrimaNota.ru - самый крупный в мире бесплатный архив песенных текстов, аккордов, табулатур и нот


Crossfade - Drown You Out - текст песни, таба, видео

Регистрация Запомнить меня
Войти через:  Facebook Google Twitter Vk Yandex Mail.ru

Crossfade - Drown You Out - текст песни, таба, видео

Печатать
Просмотров: 311
Artist: Crossfade
Song: Drown You Out
Album: Falling Away (2006)
Tabbed by: Kryfer

Tuning: Drop D

It's not 100% accurate and tuning is not one that Eddie is using (i think he is using 
7-string, but who knows ;-)

e|-----------------------------------------------------|
B|-----------------------------------------------------|
G|-----------------------------------------------------|
D|--7-7--7--6-6--7-7--7--6-6--4-4-----4--4-----4--4----|
A|--4-4--4--4-4--4-4--4--4-4---------------------------|
D|---------------------------------4-------4--------4--|

e|---------------------------------------------------------------|
B|-----------------------------11-11-9-9--7-7--6-6---------------|
G|------------------------------------------------9-9--7-7--6-6--|
D|--7-7--7--6-6--7-7--7--6-6-------------------------------------|
A|--4-4--4--4-4--4-4--4--4-4-------------------------------------|
D|---------------------------------------------------------------|
P.M.                           ................................
Добавлено: 17.07.2012
Другие материалы по этой песне:
  • Аккорды и текст

Страница создана 01.05.2012
http://primanota.ru/crossfade/drown-you-out-chords.htm
Привет, Гость.
Предлагаем пройти революционный курс по гитаре.
Подарок от PrimaNota.Ru, забирай!