PrimaNota.ru - самый крупный в мире бесплатный архив песенных текстов, аккордов, табулатур и нот


Cross My Heart - Dornier - таба, видео

Регистрация Запомнить меня
Войти через:  Facebook Google Twitter Vk Yandex Mail.ru

Cross My Heart - Dornier - таба, видео

Печатать
Просмотров: 87
CROSS MY HEART - DORNIER

http://www.myspace.com/crossmyheart1997

    e|----------0------------------------2----|
    b|------3------3---------3--------------2-|
GTR G|----2---2-------2----2---2------2-------|
 1  D|-0----------------4--------4-5----------| x2
    A|----------------------------------------|
    D|----------------------------------------|

    e|----------0------------------------2----|
    b|------3------3---------3--------------2-|
GTR G|----2---2-------2----2---2------2-------|
 1  D|-0----------------4--------4-5----------| x2
    A|----------------------------------------|
    D|----------------------------------------|

    e|----------------------------------------|
    b|----------------------------------------|
GTR G|----------------------------------------|
 2  D|-0-0-0-0-0-0-0-0-0-0-4-4-4-4-4-5-5--5-5-| x2
    A|-0-0-0-0-0-0-0-0-0-0-4-4-4-4-4-5-5--5-5-|
    E|-0-0-0-0-0-0-0-0-0-0-4-4-4-4-4-5-5--5-5-|

    e|----------0------------------------2----|
    b|------3------3---------3--------------2-|
GTR G|----2---2-------2----2---2------2-------|
 1  D|-0----------------4--------4-5----------| 
    A|----------------------------------------|
    D|----------------------------------------|

    e|----------------------------------------|
    b|----------------------------------------|
GTR G|----------------------------------------|
 2  D|----------------------------------------|
    A|------------------4--4--4--4-5-5--------|
    D|------------------4--4--4--4-5-5--------|
                        P  M  P  M P M

    e|----------0------------------------2----|
    b|------3------3---------3--------------2-|
GTR G|----2---2-------2----2---2------2-------|
 1  D|-0----------------4--------4-5----------| 
    A|----------------------------------------|
    D|----------------------------------------|

    e|----------------------------------|
    b|-------------------4*-------------|
GTR G|----------------------------------|
 2  D|----------------5*-4*-------------|
    A|-0-0-0--0-0-0-0-------4-4-4-4-5-5-|
    D|-0-0-0--0-0-0-0-------4-4-4-4-5-5-|
       PMP M  P M P M       P M P M P M

    e|----------0------------------------2----|
    b|------3------3---------3--------------2-|
GTR G|----2---2-------2----2---2------2-------|
 1  D|-0----------------4--------4-5----------| 
    A|----------------------------------------|
    D|----------------------------------------|

    e|----------------------------------------|
    b|----------------------------------------|
GTR G|----------------------------------------|
 2  D|----------------------------------------|
    A|-0--0--0--0--0-0--4--4--4--4-5-5--------|
    D|-0--0--0--0--0-0--4--4--4--4-5-5--------|
       P  M  P  M  P M  P  M  P  M P M     

    e|----------0------------------------2----|
    b|------3------3---------3--------------2-|
GTR G|----2---2-------2----2---2------2-------|
 1  D|-0----------------4--------4-5----------| 
    A|----------------------------------------|
    D|----------------------------------------|

    e|----------------------------------------|
    b|----------------------------------------|
GTR G|----------------------------------------|
 2  D|----------------------------------------|
    A|-0--0--0--0--0-0--4--4--4--4-5-5------0-|
    D|-0--0--0--0--0-0--4--4--4--4-5-5------0-|
       P  M  P  M  P M  P  M  P  M P M     PM

    e|----------0------------------------2----|
    b|------3------3---------3--------------2-|
GTR G|----2---2-------2----2---2------2-------|
1+2 D|-0----------------4--------4-5----------| 
    A|----------------------------------------|
    D|----------------------------------------|

    e|----------------------------------------|
    b|----------------------------------------|
GTR G|-/7-------------------------------------|
 3  D|----------------------------------------|
    A|----------------------------------------|
    D|----------------------------------------|

    e|----------0------------------------2----|
    b|------3------3---------3--------------2-|
GTR G|----2---2-------2----2---2------2-------|
1+2 D|-0----------------4--------4-5----------| x2
    A|----------------------------------------|
    D|----------------------------------------|

    e|----------0------------------------2----|
    b|------3------3---------3--------------2-|
GTR G|----2---2-------2----2---2------2-------|
 1  D|-0----------------4--------4-5----------| 
    A|----------------------------------------|
    D|----------------------------------------|

    e|----------0-----------------------------|
    b|------3------3--------------------------|
GTR G|----2---2-------2-----------------------|
 2  D|-0--------------------------------------| 
    A|-----------------------------5--5--5--5-|
    D|------------------4BD--------5--5--5--5-|

    e|----------0-----------------------------|
    b|------3------3---------3----------------|
GTR G|----2---2-------2----2---2--------------|
 1  D|-0----------------4--------4-5--5--5--5-| x4 
    A|-----------------------------5--5--5--5-|
    D|-----------------------------5--5--5--5-|

    e|------------------------------------------|
    b|------------------------------------------|
GTR G|------------------------------------------|
 2  D|-0-0-0-0-0-0-0-0-0-0-4-4-4-4-4-5--5--5--5-| x4
    A|-0-0-0-0-0-0-0-0-0-0-4-4-4-4-4-5--5--5--5-|
    D|-0-0-0-0-0-0-0-0-0-0-4-4-4-4-4-5--5--5--5-|

    e|-9-------------------------------|
    b|---7-7-7-7-7-7-7-7-7-7-7-7-8-8-8-|
GTR G|---------------------------------|
 1  D|---------------------------------| x3
    A|---------------------------------|
    D|---------------------------------|

    e|---------------------------------|
    b|-7-7-7-7-7-7-7-7-7-7-7-7-7-8-8-8-|
GTR G|---------------------------------|
 2  D|-4-4-4-4-4-4-4-4-4-4-4-4-4-5-5-5-| x3
    A|---------------------------------|
    D|---------------------------------|

    e|-9----------------------------17----17----17-|
    b|---7-7-7-7-7-7-7-7-7-7-7-7-15----15----15----|
GTR G|---------------------------------------------|
 1  D|---------------------------------------------| 
    A|---------------------------------------------|
    D|---------------------------------------------|

    e|---------------------------------|
    b|-7-7-7-7-7-7-7-7-7-7-7-7-7-------|
GTR G|---------------------------------|
 2  D|-4-4-4-4-4-4-4-4-4-4-4-4-4-5-5-5-| 
    A|---------------------------5-5-5-|
    D|---------------------------5-5-5-|

    e|----------0------------------------2----|
    b|------3------3---------3--------------2-|
GTR G|----2---2-------2----2---2------2-------|
1+2 D|-0----------------4--------4-5----------| 
    A|----------------------------------------|
    D|----------------------------------------|

    e|----------------------------------------|
    b|----------------------------------------|
GTR G|-/7-------------------------------------|
 3  D|----------------------------------------|
    A|----------------------------------------|
    D|----------------------------------------|

    e|----------0------------------------2----|
    b|------3------3---------3--------------2-|
GTR G|----2---2-------2----2---2------2-------|
1+2 D|-0----------------4--------4-5----------| x2
    A|----------------------------------------|
    D|----------------------------------------|

    e|----------0------------------------2----|
    b|------3------3---------3--------------2-|
GTR G|----2---2-------2----2---2------2-------|
 1  D|-0----------------4--------4-5----------| 
    A|----------------------------------------|
    D|----------------------------------------|

    e|----------0-----------------------------|
    b|------3------3--------------------------|
GTR G|----2---2-------2-----------------------|
 2  D|-0--------------------------------------| 
    A|-----------------------------5--5--5--5-|
    D|------------------4BD--------5--5--5--5-|

    e|----------0-----------------------------|
    b|------3------3---------3----------------|
GTR G|----2---2-------2----2---2--------------|
 1  D|-0----------------4--------4-5--5--5--5-| x4 
    A|-----------------------------5--5--5--5-|
    D|-----------------------------5--5--5--5-|

    e|------------------------------------------|
    b|------------------------------------------|
GTR G|------------------------------------------|
 2  D|-0-0-0-0-0-0-0-0-0-0-4-4-4-4-4-5--5--5--5-| x4
    A|-0-0-0-0-0-0-0-0-0-0-4-4-4-4-4-5--5--5--5-|
    D|-0-0-0-0-0-0-0-0-0-0-4-4-4-4-4-5--5--5--5-|

    e|-10101010101010101010-------------------------|
    b|----------------------------------------------|
GTR G|----------------------------------------------|
 1  D|--------------------------4--4--4-4-5--5--5-5-| x2
    A|--------------------------4--4--4-4-5--5--5-5-|
    D|----------------------/12-4--4--4-4-5--5--5-5-|

    e|----------------------------------------------|
    b|----------------------------------------------|
GTR G|----------------------------------------------|
 1  D|--------------------------4--4--4-4-5--5--5-5-| x2
    A|--------------------------4--4--4-4-5--5--5-5-|
    D|----------------------/12-4--4--4-4-5--5--5-5-|

    e|-101010---------------------------------------|
    b|--------777-888-101010------------------------|
GTR G|----------------------------------------------|
 1  D|--------------------------4--4--4-4-5--5--5-5-| 
    A|--------------------------4--4--4-4-5--5--5-5-|
    D|--------------------------4--4--4-4-5--5--5-5-|

    e|----------------------------------------------|
    b|----------------------------------------------|
GTR G|----------------------------------------------|
 2  D|--------------------------4--4--4-4-5--5--5-5-| 
    A|--------------------------4--4--4-4-5--5--5-5-|
    D|----------------------/12-4--4--4-4-5--5--5-5

    e|-101010-----101010-----101010-----101010-----|
    b|--------777--------777--------777--------777-|
GTR G|---------------------------------------------|
 1  D|---------------------------------------------| 
    A|---------------------------------------------|
    D|---------------------------------------------|

    e|---------------------------------------------|
    b|---------------------------------------------|
GTR G|---------------------------------------------|
 1  D|-0-0-0-0-0-0-0-0-0-0-0-0-4--4--4-4-5--5--5-5-| 
    A|-0-0-0-0-0-0-0-0-0-0-0-0-4--4--4-4-5--5--5-5-|
    D|-0-0-0-0-0-0-0-0-0-0-0-0-4--4--4-4-5--5--5-5-|

    e|-----------------------------|
    b|-10-7---10-7------0----8-7---|
GTR G|------7------7----6h7------8-|
 1  D|---------------7-------------| 1,3
    A|-----------------------------|
    D|-----------------------------|

    e|-5---------5-------------------|
    b|---7-7-7-7---7-7-7-7-7---8-7---|
GTR G|---7-7-7-7---7-7-7-7-9-------7-|
 2  D|---5-5-5-5---5-5-5-5-7---------| 1,3
    A|---5-5-5-5---5-5-5-5-7---------|
    D|-------------------------------|

    e|-----------------------------|
    b|-10-7---10-7------0----8-7---|
GTR G|------7------7----6h7------8-|
 1  D|---------------7-------------| 2,4
    A|-----------------------------|
    D|-----------------------------|

    e|-5---------5-------------------|
    b|---7-7-7-7---7-7-7-7-7---------|
GTR G|---7-7-7-7---7-7-7-7-9---6-7-9-|
 2  D|---5-5-5-5---5-5-5-5-7---------| 2,4
    A|---5-5-5-5---5-5-5-5-7---------|
    D|-------------------------------|

    e|-----------------------------|
    b|-10-7---10-7------0----8-7---|
GTR G|------7------7----6h7------8-|
 1  D|---------------7-------------| 1,3
    A|-----------------------------|
    D|-----------------------------|

    e|-----------------------------|
    b|-----------------------------|
GTR G|-----------------------------|
 2  D|-----------------------------| 1,3
    A|-----------------------------|
    D|-----------------------------|

    e|-----------------------------|
    b|-10-7---10-7------0----8-7---|
GTR G|------7------7----6h7------8-|
 1  D|---------------7-------------| 2,4
    A|-----------------------------|
    D|-----------------------------|

    e|----------------------------|
    b|----------7--8--------------|
GTR G|-----6h7--------6---6--7--9-|
 2  D|-5--------------------------| 2,4
    A|----------------------------|
    D|----------------------------|

    e|-----------------------------|
    b|-10-7---10-7------0----8-7---|
GTR G|------7------7----6h7------8-|
 1  D|---------------7-------------| x4
    A|-----------------------------|
    D|-----------------------------|

    e|-----------------------------|
    b|-----------------------------|
GTR G|-12-12-12-12-12-12-----------|
 2  D|-12-12-12-12-12-12-7---------| x4
    A|-10-10-10-10-10-10-7---------|
    D|-------------------7---------|

    e|----------0-----------------------------|
    b|------3------3---------3----------------|
GTR G|----2---2-------2----2---2--------------|
 1  D|-0----------------4--------4-5--5--5--5-| x4 
    A|-----------------------------5--5--5--5-|
    D|-----------------------------5--5--5--5-|

    e|------------------------------------------|
    b|------------------------------------------|
GTR G|------------------------------------------|
 2  D|-0-0-0-0-0-0-0-0-0-0-4-4-4-4-4-5--5--5--5-| x4
    A|-0-0-0-0-0-0-0-0-0-0-4-4-4-4-4-5--5--5--5-|
    D|-0-0-0-0-0-0-0-0-0-0-4-4-4-4-4-5--5--5--5-|

END
Добавлено: 20.11.2013
Другие материалы по этой песне:
  • Аккорды и текст

Страница создана 20.11.2013
http://primanota.ru/cross-my-heart/dornier-chords.htm
Привет, Гость.
Предлагаем пройти революционный курс по гитаре.
Подарок от PrimaNota.Ru, забирай!