PrimaNota.ru - самый крупный в мире бесплатный архив песенных текстов, аккордов, табулатур и нот


Cross Borns - Dawn Oath - аккорды и текст, таба, видео

Регистрация Запомнить меня
Войти через:  Facebook Google Twitter Vk Yandex Mail.ru

Cross Borns - Dawn Oath - аккорды и текст, таба, видео

Печатать
Просмотров: 100
Dawn Oath
Cross Borns
Dawn oath
Intro(acoustic)
E----------------------------------------------------------
B----------------------------------------------------------
G-------0------0-----0------0-----0------0------0-----0----
D-----6---6--6---6--6--6--6--6--6---6--6---6--9---9--9---9- 
A---4------4------4-----4------7-----7------10-----10------
E----------------------------------------------------------
 
E---------------------------------------------------------------------
B---------------------------------------------------------------------
G-------0-------0-------0-------0-------------------------------------
D-----4---4---4---4---4---4---4---4------0-------0-------0-------0----
A---2-------5-------2-------5----------5---5---5---5---4---4---4---0--
E------------------------------------3-------3-------2-------2--------

Intro
E----------------------------------------------   ----
B----------------------------------------------   ---- 
G----------------------------------------------   ----  
D---4----------------6--6/9--9/12--------------   -2--  
A---2--5--4----------4--4/7--7/10--------------   -2--  
E------3--2------------------------------------   -0--

Riff1
E---------------------------------------
B---------------------------------------
G---------------------------------------
D----9-----9-----8-----8--8~---5-4------
A--7---7-7---7-7---7-7--7------3-2------
E---------------------------------------

Riff2
E----------------------------------------------------------------------------
B----------------------------------------------------------------------------
G----------------------------3-2-------------------------------------3-2-----
D--2--2--2-2--2--2-2--2-2-2------3-2----3--3--3-3--3--3-3--3--3-3-3------3-2-
A--0--0--0-0--0--0-0--0-0-0-------------1--1--1-1--1--1-1--1--1-1-1----------
E----------------------------------------------------------------------------

Riff3
E---------------------------------------
B---------------------------------------
G--2-----3------------------------------
D--2-----3------------------------------
A--0-----1------------------------------
E---------------------------------------

Riff4
E-------------------------------------------
B-------------------------------------------
G-----3-2---------------------3-2-----------
D--2------3-0-2h3--3-------2-----3-0-2h3-3--
A--0---------------1--3----0-------------1--
E---------------------1---------------------

Riff5
E---------------------------------------
B---------------------------------------
G---------------------------------------
D---------------------------------------
A--9-10-9---8---7---5-4-5---------------
E--7-7--7---6---5---3-3-3---------------

Riff6
E---------------------------------------
B---------------------------------------
G---------------------------------------
D------------5-4-----------5-4-2-4------
A---4----4-4------4----4-4--------------
E---2----2-2------2----2-2--------------

Riff7
E---------------------------------------
B---------------------------------------
G---------------------------------------
D---------------------------------------
A--9--7--4--5--7--4---4-----------------
E--7--5--2--3--5--2---2-----------------

Riff8
E----------------------------------------------------------
B----------------------------------------------------------
G----------------9-9-9-9---10--10--10--10---9--9--9--9-----
D-------9-9-9-9---7-7-7-7----12--12--12--12--10-10-10-10---
A--2/7---7-7-7-7-------------------------------------------
E----------------------------------------------------------

E---------------------------------------
B---------------------------------------
G-----9--10--9--------------------------
D--9--7--12--10-------------------------
A--7------------------------------------
E---------------------------------------
Добавлено: 29.08.2013
Другие материалы по этой песне:
  • Аккорды и текст

Страница создана 02.04.2012
http://primanota.ru/cross-borns/dawn-oath-chords.htm
Привет, Гость.
Предлагаем пройти революционный курс по гитаре.
Подарок от PrimaNota.Ru, забирай!