PrimaNota.ru - самый крупный в мире бесплатный архив песенных текстов, аккордов, табулатур и нот


Crosby, Stills, Nash & Young - The Lee Shore - аккорды и текст, таба, видео

Регистрация Запомнить меня
Войти через:  Facebook Google Twitter Vk Yandex Mail.ru

Crosby, Stills, Nash & Young - The Lee Shore - аккорды и текст, таба, видео

Печатать
Просмотров: 195
Авторы музыки: David Crosby
Авторы текста: David Crosby
The Lee Shore
Crosby, Stills, Nash & Young
THE LEE SHORE- Crosby, Stills, Nash and Young

E -10- -7- --- ------- -7- -10- -7-   -10-   -7-   ---  ------0----------
B --8- -7- -8- -7h8p7- -7- --8- -7-   --8-   -7-   -8-  -8s10---10----10-
G ---- --- -9- ------- --- ---- ---   ----   ---   -9-  -9s11------11----
D ---- --- --- ------- --- ---- ---   ----   ---   ---  -----------------
A ---- --- --- ------- --- ---- ---   ----   ---   ---  -----------------
E ---- --- --- ------- --- ---- ---   ----   ---   ---  -----------------
                                        Wheel gull,   spin  and  glide

E ----  ---- ---- ---  --- -5-                    ---0- ---0-
B -10-  -12- -10- -8-  -7- -5-                    --3-- --0--
G -11-  -12- -11- -9-  -7- -5-                    -4--- -2---
D ----  ---- ---- ---  --- ---                    ----- -----
A ----  ---- ---- ---  --- ---                    ----- -----
E ----  ---- ---- ---  --- ---                    ----- -----
  You've got  no place  to hide  It's cause you don't need one

E*            C7M    A*  E*
All along the lee shore
 E*                  C7M     A*   E*
Shells lie scattered in the sand
 E*               C7M     Am7     G  G/C  G
Winking up like shining eyes, at me
          E*  A*  E*  A*
>From the sea

Here is one like sunrise
It's older than you know
It's still lying there where some careless wave
Forgot it long ago

When I awoke this morning
I dove beneath my floating home
Down below her graceful side in the turning tide
To watch the seafish roam

There I heard a story
>From the sailors of the Sandra Marie
There's another island a day's run away from here
And it's empty and free

>From here to Venezuela
There's nothing more to see
Than a hundred thousand islands
flung like jewels upon the sea
For you and me


Sunset smells of dinner
Women are calling at me to end my tails
But perhaps I'll see you, the next quiet place
F             E*  A*  E*  E*
I furl my sails


E*: 0 2 4 0 3 5   A*: x 0 4 0 3 x   C7M  : x 3 2 0 0 x  G/C 3 x 2 0 1 3

PICKING PATTERN:
E----------------|   play the high E note only at the very very end
B-------3--------|
G-----0-----0----|
D---4-----4------|
A----------------|
E-0--------------| 
Добавлено: 05.04.2012
Другие материалы по этой песне:

Страница создана 23.02.2012
http://primanota.ru/crosby-stills-nash-and-young/the-lee-shore-chords.htm
Привет, Гость.
Предлагаем пройти революционный курс по гитаре.
Подарок от PrimaNota.Ru, забирай!