PrimaNota.ru - самый крупный в мире бесплатный архив песенных текстов, аккордов, табулатур и нот


Crosby, Stills & Nash - Ohio - аккорды и текст, таба, бас-таба, видео

Регистрация Запомнить меня
Войти через:  Facebook Google Twitter Vk Yandex Mail.ru

Crosby, Stills & Nash - Ohio - аккорды и текст, таба, бас-таба, видео

Печатать
Просмотров: 135
Уроки эстрадного вокала в Санкт-Петербурге
Ohio
Crosby, Stills & Nash
Artist: C,S N & Y
Song: Ohio
Album: So far
Composer: Neil Young
Tabbed by: DJ
20th Mar 2015

TUNING: Double dropped D
Tune top and bottom strings down to D
D A D G B D
6 5 4 3 2 1

Original album track is slightly flat of concert pitch

D5    = 000230   C       = x3201x
D    = 000030   Csus2   = x3001x
F     = xx321x   Gm7     = 553333
Fsus2 = xx301x   Cadd9   = x32010
                 Csus2/4 = x33010

******************************************************************

[Intro]
      D5         F Fsus2 C Csus2    D5        F Fsus2   C
e |----0-----------------------|----0-----------------------| [x4]
B |----3----------1--1--1--1---|----3----------1--1-----1---|
G |----2--0-h2-0--2--0--0--0---|----2--0-h2-0--2--0-----0---|
D |----0----------3--3--2--0---|----0----------3--3-----2---|
A |---------------------3--3---|---------------------3--3---|
E |--0-------------------------|--0-------------------------|


[Verse 1]
D5        D      D5   F   Fsus2   C   Csus2
    Tin soldiers and  Nix - on's  com - ing,
D5         D     D5   F   Fsus2   C
    We're final - ly  on   our   own,
D5         D     D5   F   Fsus2   C   Csus2
    This summer   I   hear  the  drumm - ing,
D5         D     D5   F   Fsus2   C
     Four dead    in   O   - hi  - o!


[Verse 2]
Gm7                      Cadd9
    Gotta get down to it,      soldiers are gunning us down,
Gm7                              Cadd9   Csus2/4  Cadd9
    Should of been done long a - go,
Gm7                           Cadd9
    What if you knew her, and   ...found her dead on the ground?
Gm7                          Cadd9
    How can you run when you know?

[Break]
  D5
|  /  /  /  /  |  /  /  /  /  |


      D5         F Fsus2 C Csus2    D5        F Fsus2   C
e |----0-----------------------|----0-----------------------| [x2]
B |----3----------1--1--1--1---|----3----------1--1-----1---|
G |----2--0-h2-0--2--0--0--0---|----2--0-h2-0--2--0-----0---|
D |----0----------3--3--2--0---|----0----------3--3-----2---|
A |---------------------3--3---|---------------------3--3---|
E |--0-------------------------|--0-------------------------|


[Verse 3]
D5      D       D5  F   Fsus2  C   Csus2
    Na, na - na, na, na - na,   na - na!
D5      D       D5  F   Fsus2  C
    Na, na - na, na, na - na,   na!
D5      D       D5  F   Fsus2  C   Csus2
    Na, na - na, na, na - na,   na - na!
D5      D       D5  F   Fsus2  C
    Na, na - na, na, na - na,   na!


[Verse 4]
Gm7                      Cadd9
    Gotta get down to it,      soldiers are gunning us down,
Gm7                              Cadd9    Csus2/4 Cadd9
    Should of been done long a - go,
Gm7                           Cadd9
    What if you knew her, and   ...found her dead on the ground?
Gm7                          Cadd9   Csus2/4 Cadd9   Csus2/4 Cadd9
    How can you run when you know?

[Break]
  D5
|  /  /  /  /  |  /  /  /  /  |


      D5         F Fsus2 C Csus2    D5        F Fsus2   C
e |----0-----------------------|----0-----------------------| [x2]
B |----3----------1--1--1--1---|----3----------1--1-----1---|
G |----2--0-h2-0--2--0--0--0---|----2--0-h2-0--2--0-----0---|
D |----0----------3--3--2--0---|----0----------3--3-----2---|
A |---------------------3--3---|---------------------3--3---|
E |--0-------------------------|--0-------------------------|


[Verse 5]
D5        D      D5   F   Fsus2    C   Csus2
    Tin soldiers and   Nix - on's   com - ing,
D5         D     D5   F   Fsus2   C
    We're final - ly  on   our   own,
D5         D     D5   F   Fsus2   C   Csus2
    This summer   I   hear  the  drumm - ing,
D5         D     D5   F   Fsus2   C
     Four dead    in   O   - hi  - o!


[Coda -Repeat]
   D5      D  D5 F  Fsus2 C  Csus2 D5       D  D5 F  Fsus2 C
||:  Four dead in O - hi - o,          four dead in O - hi - o!:||
Добавлено: 24.02.2016
Другие материалы по этой песне:
  • Аккорды и текст

Страница создана 22.02.2016
http://primanota.ru/crosby-stills-and-nash-2/ohio-chords.htm
Привет, Гость.
Предлагаем пройти революционный курс по гитаре.
Подарок от PrimaNota.Ru, забирай!