PrimaNota.ru - самый крупный в мире бесплатный архив песенных текстов, аккордов, табулатур и нот


Crooked X - You Gotta Bleed - таба, видео

Регистрация Запомнить меня
Войти через:  Facebook Google Twitter Vk Yandex Mail.ru

Crooked X - You Gotta Bleed - таба, видео

Печатать
Просмотров: 116
Crooked X - You Gotta Bleed
Tabbed by: Matt

I got a little bit of the song, I'm still figuring out the rest of it ;)
Go to http://www.myspace.com/crookedx to listen to the song, Have Fun!

E|--------------------------------------|
B|--------------------------------------|
G|--5----8-------5-------8--5-----------|
D|--5----8--8----5--3----8--5-----------|
A|--3----6--8----3--3----6--3-----------|
E|----------6-------1-------------------|2x

  Pm
     . . . . . . .                                . . .
E|--------------------------------------------------------------|
B|--------------------------------------------------------------|
G|---5-5-5-5-5-5-5----5----8------5-------8--5----5-5-5---------|
D|---5-5-5-5-5-5-5----5----8--8---5--3----8--5----5-5-5---------|
A|---3-3-3-3-3-3-3----3----6--8---3--3----6--3----3-3-3---------|
E|----------------------------6------1--------------------------|

  Pm
                                 . . .
E|------------------------------------------|
B|------------------------------------------|
G|--5----8-------5-------8--5----5-5-5------|
D|--5----8--8----5--3----8--5----5-5-5------|
A|--3----6--8----3--3----6--3----3-3-3------|
E|----------6-------1-----------------------|




Добавлено: 18.05.2012
Другие материалы по этой песне:
  • Аккорды и текст

Страница создана 18.05.2012
http://primanota.ru/crooked-x/you-gotta-bleed-chords.htm
Привет, Гость.
Предлагаем пройти революционный курс по гитаре.
Подарок от PrimaNota.Ru, забирай!