PrimaNota.ru - самый крупный в мире бесплатный архив песенных текстов, аккордов, табулатур и нот


Crooked X - Rock And Roll Dream - таба, бас-таба, видео

Регистрация Запомнить меня
Войти через:  Facebook Google Twitter Vk Yandex Mail.ru

Crooked X - Rock And Roll Dream - таба, бас-таба, видео

Печатать
Просмотров: 142
Gtr I (E A D G B E) - 'Untitled'
Gtr II (E A D G B E) - 'Untitled'

*note about tuning

It might be in D standard, but that is very unnecessary, because you would
only need to use it to play one chord (a low D). For convenience's sake, it is tabbed in 
tuning (sounds the same too).


INTRO


  Q=133
  Gtr I
  S S E E S S E E S S E   E S S E E E E E E
|-----------------------|-------------------|
|-----------------------|-------------------|
|-----------------------|-------------------|
|-7-7-7---7-7-7---7-7-7-|---7-7-7---7---7---|
|-7-7-7---7-7-7---7-7-7-|---7-7-7---7---7---|
|-5-5-5---5-5-5---5-5-5-|---5-5-5---5---5---|
|
| Gtr II
| S S E E S S E E S S E   E S S E E E E E E
|-----------------------|-------------------|
|-----------------------|-------------------|
|-----------------------|-------------------|
|-7-7-7---7-7-7---7-7-7-|---7-7-7---7---7---|
|-7-7-7---7-7-7---7-7-7-|---7-7-7---7---7---|
|-5-5-5---5-5-5---5-5-5-|---5-5-5---5---5---|


VERSE

  E E E E E E E E   +W              E E E E E E E E   +W
|-----------------|---------------|-----------------|-----------------------|
|-----------------|---------------|-----------------|-----------------------|
|-----------------|---------------|-----------------|-----------------------|
|---2-2---5-5---5-|-(5)-----------|---2-2---5-5---5-|-(5)-------------------|
|---0-0---3-3---5-|-(5)-----------|---0-0---3-3---5-|-(5)-------------------|
|---------------3-|-(3)-----------|---------------3-|-(3)-------------------|
|
|                                   ~
|                    Q   H.         W                  E  S S E  E E  Q  E
|-----------------|---------------|-----------------|-----------------------|
|-----------------|---------------|-----------------|--------------8-10--8--|
|-----------------|------7b9r=====|=================|=========5-/9----------|
|-----------------|---------------|-7---------------|-----5-7---------------|
|-----------------|---------------|-----------------|-----------------------|
|-----------------|---------------|-----------------|-----------------------|


   E E E E E E E   +W           E E E E E E E E   +W
|----------------|------------|-----------------|--------|
|----------------|------------|-----------------|--------|
|----------------|------------|-----------------|--------|
|--2-2---5-5---5-|-(5)--------|---2-2---5-5---5-|-(5)----|
|--0-0---3-3---5-|-(5)--------|---0-0---3-3---5-|-(5)----|
|--------------3-|-(3)--------|---------------3-|-(3)----|
|
|  Q
|----------------|------------|---5-5---8-8-----|--------|
|-10-------------|------------|---5-5---8-8-----|--------|
|----------------|------------|---------------0-|--------|
|----------------|------------|---------------0-|--------|
|----------------|------------|-----------------|--------|
|----------------|------------|-----------------|--------|


VOCALS COME IN

  E E E E E E E   +W           E E E E E E E   +W
|---------------|------------|---------------|--------|
|---------------|------------|---------------|--------|
|---------------|------------|---------------|--------|
|-2-2---5-5---5-|-(5)--------|-2-2---5-5---5-|-(5)----|
|-0-0---3-3---5-|-(5)--------|-0-0---3-3---5-|-(5)----|
|-------------3-|-(3)--------|-------------3-|-(3)----|


  E E E E E    E E E   +W           E E E E E E E E
|--------------------|------------|-----------------|
|--------------------|------------|-----------------|
|--------------------|------------|-----------------|
|---2-2------------5-|-(5)--------|---2-2---5-5---5-|
|---0-0---3b4rp0-3-5-|-(5)--------|---0-0---3-3---5-|
|------------------3-|-(3)--------|---------------3-|


PRE-CHORUS


  +H     +E  E E E   +H     E E E E   +H     E E E E   +H     E E   E E
|------------------|----------------|----------------|------------------|
|------------------|----------------|----------------|------------------|
|------------5---7-|-(7)------------|----------5-----|------------------|
|-(5)----(5)-5---7-|-(7)------5---2-|-(2)------5---7-|-(7)------------2-|
|-(5)----(5)-3---5-|-(5)------3---0-|-(0)------3---5-|-(5)------3b4r==0-|
|-(3)----(3)-------|----------------|--------------5-|-(5)--------------|


  +H     E E E E   +H     E E E E   +H     E E E E   +W           +W
|----------------|----------------|----------------|------------|--------|
|----------------|----------------|----------------|------------|--------|
|----------5---7-|-(7)------------|----------5-----|------------|--------|
|-(2)------5---7-|-(7)------5---2-|-(2)------5-----|------------|--------|
|-(0)------3---5-|-(5)------3---0-|-(0)------3---5-|-(5)--------|-(5)----|
|----------------|----------------|--------------3-|-(3)--------|-(3)----|


CHORUS


  E E E E E E E E   E E E E E E E E   E E E E E E E E   E E E E E E E E
|-----------------|-----------------|-----------------|-----------------|
|-----------------|-----------------|-----------------|-----------------|
|-----------------|-----------------|-----------------|-----------------|
|-----------------|-----------------|-----------------|-----------------|
|-7-7-7-7-7-7-7-7-|-7-7-7-7-7-7-7-7-|-3-3-3-3-3-3-3-3-|-3-3-3-3-3-3-3-3-|
|-5-5-5-5-5-5-5-5-|-5-5-5-5-5-5-5-5-|-1-1-1-1-1-1-1-1-|-1-1-1-1-1-1-1-1-|


  E E E E E E E E   E E E E E E E E   E E E E E E E E   E
|-----------------|-----------------|-----------------|------|
|-----------------|-----------------|-----------------|------|
|-----------------|-----------------|-2-2-2-2-2-2-2-2-|-2----|
|-----------------|-----------------|-0-0-0-0-0-0-0-0-|-0----|
|-5-5-5-5-5-5-5-5-|-5-5-5-5-5-5-5-5-|-0-0-0-0-0-0-0-0-|-0----|
|-3-3-3-3-3-3-3-3-|-3-3-3-3-3-3-3-3-|-----------------|------|

PLAY THESE TASTY LICKS OVER THE VERSE RIFF WHEN IT COMES BACK

                                                ~
  Q  E   S S E Q.       W          E S S Q  H      W
|-------------------|------------|---------------|------|
|----8--------------|-/10--------|---------------|------|
|----7b9r7p5---5----|------------|---------------|------|
|------------7------|------------|---7p5---------|------|
|-------------------|------------|-------5--3----|------|
|-------------------|------------|---------------|-5----|


  E E E E E E E E   E E E E E E E E
|-----------------|---5-5---8-8-----|
|---7-5---7-5-----|---5-5---8-8-----|
|---7-5---7-5-5-7-|---------------0-|
|-----------------|---------------0-|
|-----------------|-----------------|
|-----------------|-----------------|


PLAY VERSE, PRE-CHORUS and CHORUS, then proceed to SOLO


    E   E  E  E  E  E Q    E   E  E  E  E  E  Q
||-----------------------|------------------------||
||o--------8-----7-------|--------8-----7--------o||
||-----/9-----9-----7----|----/9-----9-----7------||
||-----------------------|--------------------9---||
||o----------------------|-----------------------o||
||-----------------------|------------------------||
|
|   E   E  E  E  E  E Q    E   E  E  E  E  E  Q
||-----------------------|------------------------||
||o-------12----10-------|-------12----10--------o||
||----/12----12----11----|---/12----12----11------||
||-----------------------|-------------------14---||
||o----------------------|-----------------------o||
||-----------------------|------------------------||


  E   E  E  E  E  E Q    E   E  E  E  E  E  Q
|----------------------|-------------------------|
|-------11----10-------|-------11----10----------|
|---/12----12----10----|---/12----12----10-------|
|----------------------|-------------------12----|
|----------------------|-------------------------|
|----------------------|-------------------------|
|
| E   E  E  E  E  E Q    E   E  E  E  E  E  Q
|----------------------|-------------------------|
|-------15----13-------|-------15----13----------|
|---/15----15----14----|---/15----15----14-------|
|----------------------|-------------------17----|
|----------------------|-------------------------|
|----------------------|-------------------------|


      E  E  E  E  E E Q        E  E  E  E  E  E Q
|------------------------|-------------------------|-----------------|------|
|-----------8-----7------|-----------8-----7-------|-----------------|------|
|-------/9-----9----7----|-------/9-----9-----7----|-----------------|------|
|------------------------|----------------------9--|-----------------|------|
|------------------------|-------------------------|-----------------|------|
|------------------------|-------------------------|-----------------|------|
|
| E   E  E  E  E  E Q      E   E  E  E  E  E  Q      E E E E E E E E   E
|------------------------|-------------------------|-----------------|------|
|-------12----10---------|-------12----10----------|-----------------|------|
|---/12----12----11------|---/12----12----11-------|-----------------|------|
|------------------------|-------------------14----|-----------------|------|
|------------------------|-------------------------|-5-5-5-5-5-5-5-5-|-5----|
|------------------------|-------------------------|-5-5-5-5-5-5-5-5-|-5----|

PLAY CHORUS TWICE AND THEN OUTRO SOLO WITH CHORUS


                         ~~                                         ~~~
  Q  E E E E Q       S S Q.   E E E E   Q    E Q    E Q      E  Q   Q.    E E
|------------------|------------------|--------------------|----------------8--|
|----5---5---------|------------------|------8------8------|-8s10--10----10----|
|----5---5---------|----------5-7-5-7-|-7b9----7b9----7b9--|-------------------|
|------7---7-5tr7--|------------------|--------------------|-------------------|
|------------------|-7p5-3------------|--------------------|-------------------|
|------------------|------------------|--------------------|-------------------|


   E E  Q      E     S S  E  E    +Q   E  E H
|----8-10b12--10b12r10p8-------|-----------------|
|-10---------------------10-10-|-(10)--8---------|
|------------------------------|---------\7-5----|
|------------------------------|-----------------|
|------------------------------|-----------------|
|------------------------------|-----------------|


                             ~~
  E E E   S S E Q.     E E E Q.     E  E
|--------------------|-------------------|
|-5-5----------------|------------/10-10-|
|-5-5-7b9r7p5-7-5----|-------------------|
|--------------------|-7-5---7-----------|
|--------------------|-----7-------------|
|--------------------|-------------------|


   E E E  Q      E  E  E    E  Q      E  Q      E  E
|------------------------|-----------15--------15-------|
|-10-8---13b14-----------|-15-15b17-----15b17-----15b17r|
|------9--------14p12----|------------------------------|
|---------------------14-|------------------------------|
|------------------------|------------------------------|
|------------------------|------------------------------|


          |--3--|     |--3--|     |--3--|                        |--3--|
   Q      S  S  S  E  S  S  S  E  S  S  S  S  S    +E   E  E  E  S  S  S  E  E  E
|-----------------------------------------------|---------------------------------|
|-12b13--12h13p12----12h13p12----12h13p12----12-|-(12)----15-13-12h13p12----12----|
|-----------------14----------14----------14----|------14----------------14----12-|
|-----------------------------------------------|---------------------------------|
|-----------------------------------------------|---------------------------------|
|-----------------------------------------------|---------------------------------|


   E  Q   Q   E  E  E    S  E.  S  E.  E  Q.
|---------------------|---------------12-15--|
|-12---------12-13-15-|-13-15--13-15---------|
|----12--14-----------|----------------------|
|---------------------|----------------------|
|---------------------|----------------------|
|---------------------|----------------------|


   Q      Q      Q      Q        W
|-15b17--15b17--15b17--15b17--|-15b17----|
|-----------------------------|----------|
|-----------------------------|----------|
|-----------------------------|----------|
|-----------------------------|----------|
|-----------------------------|----------|


END WITH INTRO


Duration Legend
---------------
W - whole; H - half; Q - quarter; E - 8th; S - 16th; T - 32nd; X - 64th; a - acciaccatura
+ - note tied to previous; . - note dotted; .. - note double dotted
Uncapitalized letters represent notes that are staccato (1/2 duration)
Irregular groupings are notated above the duration line
Duration letters will always appear directly above the note/fret number it represents the
duration for.  Duration letters with no fret number below them represent rests.  Multi-
bar rests are notated in the form Wxn, where n is the number of bars to rest for.  Low
melody durations appear below the staff

Tablature Legend
----------------
 h   - hammer-on
 p   - pull-off
 b   - bend
 pb  - pre-bend
 r   - bend release (if no number after the r, then release immediately)
 /\  - slide into or out of (from/to "nowhere")
 s   - legato slide
 S   - shift slide
 - natural harmonic
[n]  - artificial harmonic
n(n) - tapped harmonic
 ~   - vibrato
 tr  - trill
 T   - tap
 TP  - trem. picking
 PM  - palm muting
\n/  - tremolo bar dip; n = amount to dip
 \n  - tremolo bar down
 n/  - tremolo bar up
/n\  - tremolo bar inverted dip
 =   - hold bend; also acts as connecting device for hammers/pulls
 <> - volume swell (louder/softer)
 x   - on rhythm slash represents muted slash
 o   - on rhythm slash represents single note slash
Добавлено: 16.03.2012
Другие материалы по этой песне:
  • Аккорды и текст

Страница создана 16.03.2012
http://primanota.ru/crooked-x/rock-and-roll-dream-chords.htm
Привет, Гость.
Предлагаем пройти революционный курс по гитаре.
Подарок от PrimaNota.Ru, забирай!