PrimaNota.ru - самый крупный в мире бесплатный архив песенных текстов, аккордов, табулатур и нот


Crooked X - Nightmare - таба, бас-таба, видео

Регистрация Запомнить меня
Войти через:  Facebook Google Twitter Vk Yandex Mail.ru

Crooked X - Nightmare - таба, бас-таба, видео

Печатать
Просмотров: 284
Уроки эстрадного вокала в Санкт-Петербурге
                        Nightmare Solo by Crooked X
              The other tabs were good but none had the solo
                         Please rate and comment
                              Thanx :P!



Guitar 1
E-----------------------------------------------------------------|
B-----------------------------------------------------------------|
G----------------7~-------------------7---7--9-9~-----------------|
D--------5-7--7/9-----7-5-7-5---5-7/9---9-------------------------|
A-7--5-7----------------------7-----------------------------------|
E-----------------------------------------------------------------|
PM   . . . .

Guitar 2
E-----------------------------------------------------------------|
B-----------------------------------------------------------------|
G-----------------------------------------------------------------|
D-7p5------------7p5-------------2-0-2-5-2-0-2-5-2-0-2-5-5~-------|
A----7p5h7p5h7p5----7p5h7p5h7p5-----------------------------------|
E-----------------------------------------------------------------|
PM. . . . . . . . . . . . . . . . . . . . . . . . . .

Guitar 1
E------------------------------------------------------------------|
B------------10br12-8-8-10b-8-8-10b-8-8-------8--------------------|
G-----7-9-7-9--------9-------9-------9--9-7-9---9-7-9-7------------|
D-7/9--------------------------------------------------9-7---7-----|
A---------------------------------------------------------10--10-7~|
E------------------------------------------------------------------|
PM                                                     . . . . . 

Guitar 2
E---------------------------------------------------7/10-10-12-12-|
B--------------10br12-10br12-8------8-----------10-8--------------|
G-9-7-9-7-9--------------------9-7-9-9-7-9-7----------------------|
D--------------------------------------------9-7------------------|
A-----------------------------------------------------------------|
E-----------------------------------------------------------------|
PM                                       . . . . . .

Guitar 1 
E-----------------------------------------------------------------|
B----------8-7------------8-7------------8-7---------8-7----------|
G-9-9-7-9------7-9-9-7-9------7-9-9-7-9------7-9-7-9----7---------|
D-----------------------------------------------------------------|
A-----------------------------------------------------------------|
E-----------------------------------------------------------------|

Guitar 2
E-----------------------------------------------------------------|
B----------3-2------------3-2------------3-2---------3-2----------|
G-4-4-2-4------2-4-4-2-4------2-4-4-2-4------2-4--2-4----2--------|
D-----------------------------------------------------------------|
A-----------------------------------------------------------------|
E-----------------------------------------------------------------|

Guitar 1 
E-----------------------------------------------------------------|
B----------8-7------------8-7------------8-7------7-8-10-7--------|
G-9-9-7-9------7-9-9-7-9------7-9-9-7-9------7-9------------------|
D-----------------------------------------------------------------|
A-----------------------------------------------------------------|
E-----------------------------------------------------------------|

Guitar 2
E-----------------------------------------------------------------|
B----------3-2------------3-2------------3-2---------3-2----------|
G-4-4-2-4------2-4-4-2-4------2-4-4-2-4------2-4--2-4----2--------|
D-----------------------------------------------------------------|
A-----------------------------------------------------------------|
E-----------------------------------------------------------------|

Guitar 1
E------------10b11----121212-12-15-12-15-12-17-17br19-15---15-15~-|
B---7-8-10-7--------------------------------------------17--------|
G-9---------------------------------------------------------------|
D-----------------------------------------------------------------|
A-----------------------------------------------------------------|
E-----------------------------------------------------------------|

Guitar 2
E-----------------------------------------------------------------|
B----------3-2------------3-2------------3-2---------3-2----------|
G-4-4-2-4------2-4-4-2-4------2-4-4-2-4------2-4--2-4----2~-------|
D-----------------------------------------------------------------|
A-----------------------------------------------------------------|
E-----------------------------------------------------------------|

This is the end part:
Guitar 1
E-------------------------------------------------------------long-trill---|
B----------------------------------------------------------------|---------|
G-------------------------------------2-4p2p0-2b4-0-2b-2b-0-0---\-/--------|
D-2--2--2--2----------2-------2-5-2-5----------------------2-2p0h2p0h2p0h2-|
A-2--2--2--2----0-2-5---5-2-5----------------------------------------------|
E-0--0--0--0---------------------------------------------------------------|
PM              . . . . . . . . . . . .

Guitar 2
E--------------------------------------------------------------------------|
B--------------------------------------------------------------------------|
G--------------------------------------------------------------------------|
D-2--2--2--2----22222222222222222222222222222222222222222222222222222222-2-|
A-2--2--2--2----22222222222222222222222222222222222222222222222222222222-2-|
E-0--0--0--0----00000000000000000000000000000000000000000000000000000000-0-|
Добавлено: 10.05.2012
Другие материалы по этой песне:

Страница создана 09.03.2012
http://primanota.ru/crooked-x/nightmare-chords.htm
Привет, Гость.
Предлагаем пройти революционный курс по гитаре.
Подарок от PrimaNota.Ru, забирай!