PrimaNota.ru - самый крупный в мире бесплатный архив песенных текстов, аккордов, табулатур и нот


Crooked X - Nail In The Coffin - таба, видео

Регистрация Запомнить меня
Войти через:  Facebook Google Twitter Vk Yandex Mail.ru

Crooked X - Nail In The Coffin - таба, видео

Печатать
Просмотров: 119
                   NAIL IN THE COFFIN TAB

Tabbed by:Jacob Popowski (Awesomo41894) This took forever to tab
TAB KEY                                 especially the solo
x=muted string
/=slide
\=slide
h=hammeron
p=pulloff
ph-pinch harmonic
.=palm mute
~=vibrato
tr= tremelo pick (pick very fast)
b=bend
bp=bend, then pull off



           Intro
e|---------------------------------------------------------------------------|
B|---------------------------------------------------------------------------|
G|---------------------------------------------------------------------------|
D|--------------5-5h7p5-----------------------------------5-5h7p5------------|
A|-----5-7--5-7---------7~-5h7-7-5h7-7-5ph-------5----5-7---------7~-5h7-7---|
E|-5-7---------------------------------------5-7---5~------------------------|
   . . .    . . .                            . . .    . . .

e|---------------------------------------------------------------------------|
B|---------------------------------------------------------------------------|
G|---------------------------------------------------------------------------|
D|--------------------------5-5h7p5---------------------------------5-5h7p5--|
A|5h7-7-5~--------5-----5-7---------7~-5h7-7-5h7-7-5~------5----5-7----------|
E|------------5-7---5~---------------------------------5-7---5~--------------|
              . . .     . . .                          . . .    . . .

e|---------------------------------------------------------------------------|
B|---------------------------------------------------------------------------|
G|---------------------------/5-7---/7-5---/5-7---7ph------------------------|
D|---------------------------------------------------------------------------|
A|7~--5h7-7-5h7-7-5~-----0-0------0------0------0------------/5-7---/7-5-----|
E|-------------------------------------------------------0-0------0----------|

                                    Verse
e|-------------------|-------------------------------------------------------|
B|-------------------|-------------------------------------------------------|
G|-------------------|-------------------------------------------------------|
D|----------5h7p5----|-------------------------------------------------------|
A|---/7p5h7-------7~-|-----------------------------7-------------------------|
E|-0-----------------|-0-0-3/5-0-0-3/5-0-0-3/5-0-0-5-0-0-3/5-0-0-3/5-0-0-3-0-|


e|---------------------------------------------------------------------------|
B|---------------------------------------------------------------------------|
G|---------------------------------------------------------------------------|
D|---------------------------------------------------------------------------|
A|-----7~-----------------------------7-----------------------------7~--9----|
E|-5-0-5~-0-0-3/5-0-0-3/5-0-0-3/5-0-0-5-0-0-3/5-0-0-3/5-0-0-3-0-5-0-5~--7----|


e|---------------------------------------------------------------------------|
B|---------------------------------------------------------------------------|
G|---------------------------------------------------------------------------|
D|---------------------------------------------------------------------------|
A|-7-----------------------------7--9--7-----------------------------7--9-11-|
E|-5-0-0-3/5-0-0-3/5-0-0-3/5-0-0-5--7--5-0-0-3/5-0-0-3/5-0-0-3/5-0-0-5--7--9-|


e|---------------------------------------------------------------------------|
B|---------------------------------------------------------------------------|
G|---------------------------------------------------------------------------|
D|---------------------------------------------------------------------------|
A|----------------------------7--9-11----7-8-9-10---x-x-x-9-9-x-x-x-9-9-x-x-x|
E|0-0-3/5-0-0-3/5-0-0-3/5-0-0-5--7--9----5-6-7--8---x-x-x-7-7-x-x-x-7-7-x-x-x|


e|---------------------------------------------------------------------------|
B|---------------------------------------------------------------------------|
G|---------------------------------------------------------------------------|
D|---------------------------------------------------------------------------|
A|9-9-x-x-x-9-9-x-x-x--11-11-x-x-x-11-11-x-x-x-11-11-x-x-x-11-11-x-x-x-9-9-x-|
E|7-7-x-x-x-7-7-x-x-x---9--9-x-x-x--9--9-x-x-x--9--9-x-x-x--9--9-x-x-x-7-7-x-|


e|---------------------------------------------------------------------------|
B|---------------------------------------------------------------------------|
G|---------------------------------------------------------------------------|
D|---------------------------------------------------------------------------|
A|-x-x-9-9-x-x-x-9-9-x-x-x-9-9-x-x-x-11-11-11-11-11-11-11-11-11-11-11-11-----|
E|-x-x-7-7-x-x-x-7-7-x-x-x-7-7-x-x-x--9--9--9--9--9--9--9--9--9--9--9--9-----|


e|---------------------------------------------------------------------------|
B|---------------------------------------------------------------------------|
G|---------------------------------------------------------------------------|
D|---------------------------------------------------------------------------|
A|-----------------------------7------------------------------7~-------------|
E|-0-0-3/5-0-0-3/5-0-0-3/5-0-0-5-0-0-3/5-0-0-3/5--0-0-3-0-5-0-5~-0-0-3/5-0-0-|


e|---------------------------------------------------------------------------|
B|---------------------------------------------------------------------------|
G|---------------------------------------------------------------------------|
D|--------------------------------------------------7-5---5------------------|
A|------------------7-----------------------------7-----7---7-5-7-5---5------|
E|-3/5--0-0-3/5-0-0-5-0-0-3/5-0-0-3/5-0-0-3-0-5-0-5-----------------7---7-5--|
                                                    . . . . . . . . . . . .

e|---------------------------------------------------------------------------|
B|---------------------------------------------------------------------------|
G|---------------------------------------------------------------------------|
D|------------------------------------7-5---5--------------------------------|
A|-----------------------------7----------7---7-5-7-5---5-------9----7-------|
E|-0-0-3/5-0-0-3/5-0-0-3/5-0-0-5----------------------7---7-5---7----5-------|
                                      . . . . . . . . . . . . 



e|---------------------------------------------------------------------------|
B|---------------------------------------------------------------------------|
G|---------------------------------------------------------------------------|
D|---------------------------------------------------------------------------|
A|-----------------------------7--9-7-----------------------------7--9-11----|
E|-0-0-3/5-0-0-3/5-0-0-3/5-0-0-5--7-5-0-0-3/5-0-0-3/5-0-0-3/5-0-0-5--7--9----|


e|---------------------------------------------------------------------------|
B|---------------------------------------------------------------------------|
G|---------------------------------------------------------------------------|
D|---------------------------------------------------------------------------|
A|-----------------------------7--9-11--7-8-9-10-x-x-x-9-9-x-x-x-9-9-x-x-x---|
E|-0-0-3/5-0-0-3/5-0-0-3/5-0-0-5--7--9--5-6-7--8-x-x-x-7-7-x-x-x-7-7-x-x-x---|



e|---------------------------------------------------------------------------|
B|---------------------------------------------------------------------------|
G|---------------------------------------------------------------------------|
D|---------------------------------------------------------------------------|
A|9-9-x-x-x-9-9-x-x-x--11-11-x-x-x-11-11-x-x-x-11-11-x-x-x-11-11-x-x-x-9-9-x-|
E|7-7-x-x-x-7-7-x-x-x---9--9-x-x-x--9--9-x-x-x--9--9-x-x-x--9--9-x-x-x-7-7-x-|


e|---------------------------------------------------------------------------|
B|---------------------------------------------------------------------------|
G|---------------------------------------------------------------------------|
D|---------------------------------------------------------------------------|
A|-x-x-9-9-x-x-x-9-9-x-x-x-9-9-x-x-x-11-11-11-11-11-11-11-11-11-11-11-11-----|
E|-x-x-7-7-x-x-x-7-7-x-x-x-7-7-x-x-x--9--9--9--9--9--9--9--9--9--9--9--9-----|


e|---------------------------------------------------------------------------|
B|---------------------------------------------------------------------------|
G|---------------------------------------------------------------------------|
D|---------------------------------------------------------------------------|
A|-----------------------------7------------------------------7~-------------|
E|-0-0-3/5-0-0-3/5-0-0-3/5-0-0-5-0-0-3/5-0-0-3/5--0-0-3-0-5-0-5~-0-0-3/5-0-0-|


e|---------------------------------------------------------------------------|
B|---------------------------------------------------------------------------|
G|---------------------------------------------------------------------------|
D|--------------------------------------------------7-5---5------------------|
A|------------------7-----------------------------7-----7---7-5-7-5---5------|
E|-3/5--0-0-3/5-0-0-5-0-0-3/5-0-0-3/5-0-0-3-0-5-0-5-----------------7---7-5--|
                                                    . . . . . . . . . . . .


e|---------------------------------------------------------------------------|
B|---------------------------------------------------------------------------|
G|---------------------------------------------------------------------------|
D|--------------------------------7-5---5------------------7-5---5-----------|
A|-----------------------------7------7---7-5-7-5---5----------7---7-5-7-5---|
E|-0-0-3/5-0-0-3/5-0-0-3/5-0-0-5------------------7---7-5------------------7-|
                                  . . . . . . . . . . . .  . . . . . . . . . 
                     Pre Solo

e|-------|-------------------------------------------------------------------|
B|-------|-------------------------------------------------------------------|
G|-------|-------------------------------------------------------------------|
D|-------|-0-5bp0-0-7bp0-0-5bp0-0------0-5bp0-0-7bp0-0-5bp0-0-----0-5bp0-0---|
A|5------|------------------------7bp0---------------------------------------|
E|--7-5--|----------------------------------------------------5~-------------|
  . . . 

e|---------------------------------------------------------------------------|
B|---------------------------------------------------------------------------|
G|---------------------------------------------------------------------------|
D|-7bp0-0-5bp0-0------0-5bp0-0-7bp0-0-5bp0-0----0-5bp0-7b-5b-0---------------|
A|---------------7bp0------------------------------------------7p5-----------|
E|-------------------------------------------5~------------------------------|


e|---------------------------------------------------------------------------|
B|---------------------------------------------------------------------------|
G|---------------------------------------------------------------------------|
D|-0-5p0-7b-5b-0------0-5bp0-0-7bp0-0-5bp0-0---------------------------------|
A|---------------7p5-------------------------7p0-0-5p0-0---------------------|
E|-------------------------------------------------------7p0-0-5p0-0-3~------|



e|---------------------------------------------------------------------------|
B|---------------------------------------------------------------------------|
G|---------------------------------------------------------------------------|
D|-0-5p0-0-7p0-0-5p0-0-----------------------------0-5p0-7b-5b-0------0-5p0--|
A|---------------------7p0-0-5p0-0-------------------------------7p5---------|
E|---------------------------------7p0-0-5p0-0-3~----------------------------|


e|---------------------------------------------------------------------------|
B|---------------------------------------------------------------------------|
G|---------------------------------------------------------------------------|
D|-7b-5b-0-------------------------------------------------------------------|
A|---------7p5---------------------------------------------------------------|
E|---------------------------------------------------------------------------|

    SOLO
e|12b-12~-10-13p12p10-10-13p12p10-10-13p12p10-10-13p12p10-10-13p12p10-10-15b-|
B|---------------------------------------------------------------------------|
G|---------------------------------------------------------------------------|
D|---------------------------------------------------------------------------|
A|---------------------------------------------------------------------------|
E|---------------------------------------------------------------------------|


e|-15-15b-15b----15-12---------------------------------------------17b-------|
B|---------------------14-/14-12---------12--------------12tr-14tr-----------|
G|------------------------------14-12-14----14-12tr-14tr---------------------|
D|---------------------------------------------------------------------------|
A|---------------------------------------------------------------------------|
E|---------------------------------------------------------------------------|


e|---------------------------------------------------------------------------|
B|---------------------------------------------------------------------------|
G|15b-15b-15b-15b-17b-17b-17b-17b-17b-17bp15--15-17p15-15-17p15-15-17p15-15--|
D|--------------------------------------------15-------15-------15-------15--|
A|---------------------------------------------------------------------------|
E|---------------------------------------------------------------------------|


e|---------------------------------------------------------------------------|
B|--------------------------------17b-----17b-----17b-----17b-19-19~----22~--|
G|17p15-15---17--15-15-15~---17b------17b-----17b-----17b-----19-19~-19-22~--|
D|------15---17--15-15-15~---------------------------------------------------|
A|---------------------------------------------------------------------------|
E|---------------------------------------------------------------------------|


e|-------------22------------------------------------------------------------|
B|-22~-22~-22~-22------------------------------------------------------------|
G|-22~-22~-22~--------------end-of solo, FINALLY-----------------------------|
D|---------------------------------------------------------------------------|
A|---------------------------------------------------------------------------|
E|---------------------------------------------------------------------------|
                   Pre end

e|---------------------------------------------------------------------------|
B|---------------------------------------------------------------------------|
G|---------------------------------------------------------------------------|
D|---------------------------------------------------------------------------|
A|-----------------------------7-----------------------------7~--------------|
E|-0-0-3/5-0-0-3/5-0-0-3/5-0-0-5-0-0-3/5-0-0-3/5-0-0-3-0-5-0-5~-0-0-3/5-0-0--|


e|---------------------------------------------------------------------------|
B|---------------------------------------------------------------------------|
G|---------------------------------------------------------------------------|
D|---------------------------------------------------------------------------|
A|----------------7-----------------------------7~---------------------------|
E|3/5-0-0-3/5-0-0-5-0-0-3/5-0-0-3/5-0-0-3-0-5-0-5~-0-0-3/5-0-0-3/5-0-0-3/5-0-|


e|---------------------------------------------------------------------------|
B|---------------------------------------------------------------------------|
G|---------------------------------------------------------------------------|
D|---------------------------------------------------------------------------|
A|---7-----------------------------7~-----------------------------7----------|
E|-0-5-0-0-3/5-0-0-3/5-0-0-3-0-5-0-5~-0-0-3/5-0-0-3/5-0-0-3/5-0-0-5-0-0-3/5-0|


e|---------------------------------------------------------------------------|
B|---------------------------------------------------------------------------|
G|---------------------------------------------------------------------------|
D|---------------------------7-5---5--------------------2--------------------|
A|-------------------7~-7--------7---7-5-7-5---5--------2--------------------|
E|-0-3/5-0-0-3-0-5-0-5~-5--------------------7---7-5\---0--------------------|
                             . . . . . . . . . . . 



Play this part till song ends
e|---------------------------------------------------------------------------|
B|---------------------------------------------------------------------------|
G|---------------------------------------------------------------------------|
D|----------------------------------------------2/3/2/3/2--------------------|
A|---------2-------2---3---3/5/3/2----------2---0/1/0/1/0--------------------|
E|-000-0-0-0-0-0-0-0-0-1-1-1/3/1/0--000-0-0-0-0------------------------------|
   ... . .   . . .   .   .          ... . .   .


Good luck, have fun!
Добавлено: 04.07.2012
Другие материалы по этой песне:

Страница создана 24.04.2012
http://primanota.ru/crooked-x/nail-in-the-coffin-chords.htm
Привет, Гость.
Предлагаем пройти революционный курс по гитаре.
Подарок от PrimaNota.Ru, забирай!