PrimaNota.ru - самый крупный в мире бесплатный архив песенных текстов, аккордов, табулатур и нот


Crobot - Wizards - таба, видео

Регистрация Запомнить меня
Войти через:  Facebook Google Twitter Vk Yandex Mail.ru

Crobot - Wizards - таба, видео

Печатать
Просмотров: 69
Artist: Crobot
Song: Wizards
Album: Something Supernatural
Tabbed by: gustavoaraujo999@hotmail.com
Tuning: Drop C#


**The choruses (chori?) are bad but the rest is okay.


[Intro]
D#|-------|-------|-------|-------|
A#|-------|-------|-------|-------|
F#|-------|-8--8--|-------|-8--8--|
C#|-7--7--|-7--7--|-7--7--|-7--7--|
G#|-5--5--|-5--5--|-5--5--|-5--5--|
C#|-0--0--|-0--0--|-0--0--|-0--0--|

D#|----------------------------|-------------------------|
A#|----------------------------|-------------------------|
F#|-------------/7--5----------|------------/7--5----5---|
C#|---------3----------7-6-5-3-|---------3---------7-6---|
G#|-5-3-5-x--------------------|-5-3-5-x-----------------|
C#|----------------------------|-------------------------|

D#|----------------------------|-------------------------|
A#|----------------------------|---------------------?---|
F#|-------------/7--5----------|------------/7--5----?---|
C#|---------3----------7-6-5-3-|---------3---------7-?---|
G#|-5-3-5-x--------------------|-5-3-5-x-----------------|
C#|----------------------------|-------------------------|


[Verse]
D#|-14-|-12-|-7--|-2--|
A#|-15-|-13-|-8--|-3--|
F#|-14-|-12-|-7--|-2--|
C#|----|----|----|-0--|
G#|----|----|----|----|
C#|----|----|----|----|

D#|-14-|-12-|-7--|-2--|
A#|-15-|-13-|-8--|-3--|
F#|-14-|-12-|-7--|-2--|
C#|----|----|----|-0--|
G#|----|----|----|----|
C#|----|----|----|----|


[Pre-chorus]
D#|-------------------|
A#|--0----------------|
F#|--0----------------|
C#|-/0----------------|
G#|-/-----------------|
C#|-/-----------------|

D#|--------------------------------------|----------------------------------------|
A#|--------------------------------------|----------------------------------------|
F#|--------------------------------------|----------------------------------------|
C#|-5--7--8-8-10-8---8-10-8---5-5-7-5--5-|-5--7--8-8-10-8---8-10-8---10-10--11-11-|
G#|-5--7--8-8-10-8---8-10-8---5-5-7-5--5-|-5--7--8-8-10-8---8-10-8---10-10--11-11-|
C#|-5--7--8-8----8---8----8---5-5---5--5-|-5--7--8-8----8---8----8---10-10--11-11-|


[Chorus] - not sure about this
D#|----------------------|------------------------|
A#|----------------------|------------------------|
F#|----------------------|------------------------|
C#|--------------------3-|------------------------|
G#|-3--5--5----3-5-5-x---|-3--5--5-3-55-00-33-5-0-|
C#|----------------------|------------------------|

D#|----------------------|---------------------|
A#|----------------------|---------------------|
F#|----------------------|---------------------|
C#|--------------------3-|-----------12-x-12---|
G#|-3--5--5----3-5-5-x---|-3--5--5-----------11|
C#|----------------------|---------------------|


[Verse]
D#|-14-|-12-|-7--|-2--|
A#|-15-|-13-|-8--|-3--|
F#|-14-|-12-|-7--|-2--|
C#|----|----|----|-0--|
G#|----|----|----|----|
C#|----|----|----|----|

D#|-14-|-12-|-7--|-2--|
A#|-15-|-13-|-8--|-3--|
F#|-14-|-12-|-7--|-2--|
C#|----|----|----|-0--|
G#|----|----|----|----|
C#|----|----|----|----|


[Pre-chorus]
D#|-------------------|
A#|--0----------------|
F#|--0----------------|
C#|-/0----------------|
G#|-/-----------------|
C#|-/-----------------|

D#|--------------------------------------|----------------------------------------|
A#|--------------------------------------|----------------------------------------|
F#|--------------------------------------|----------------------------------------|
C#|-5--7--8-8-10-8---8-10-8---5-5-7-5--5-|-5--7--8-8-10-8---8-10-8---10-10--11-11-|
G#|-5--7--8-8-10-8---8-10-8---5-5-7-5--5-|-5--7--8-8-10-8---8-10-8---10-10--11-11-|
C#|-5--7--8-8----8---8----8---5-5---5--5-|-5--7--8-8----8---8----8---10-10--11-11-|


[Chorus 2]
D#|----------------------|------------------------|
A#|----------------------|------------------------|
F#|----------------------|------------------------|
C#|--------------------3-|------------------------|
G#|-3--5--5----3-5-5-x---|-3--5--5-3-55-00-33-5-0-|
C#|----------------------|------------------------|

D#|----------------------|---------------------|
A#|----------------------|---------------------|
F#|----------------------|---------------------|
C#|--------------------3-|-----------12-x-12---|
G#|-3--5--5----3-5-5-x---|-3--5--5-----------11|
C#|----------------------|---------------------|

D#|----------------------|------------------------|
A#|----------------------|------------------------|
F#|----------------------|------------------------|
C#|--------------------3-|------------------------|
G#|-3--5--5----0-3-5-x---|-3--5--5-3-55-00-33-5-0-|
C#|----------------------|------------------------|

D#|----------------------|---------------------|
A#|----------------------|---------------------|
F#|----------------------|---------------------|
C#|--------------------3-|---------------------|
G#|-3--5--5----3-5-5-x---|-3--5--5-3--0-3-4----|
C#|----------------------|---------------------|


[Interlude]
D#|-------|-------|-------|-------|
A#|-------|-------|-------|-------|
F#|-------|-8--8--|-------|-8--8--|
C#|-7--7--|-7--7--|-7--7--|-7--7--|
G#|-5--5--|-5--5--|-5--5--|-5--5--|
C#|-0--0--|-0--0--|-0--0--|-0--0--|


[Solo]
?????????

It's that goddamn pedal again. 
It starts phasing very slowly and increases at the end. Just play the interlude again.


[Pre-chorus]
D#|--------------------------------------|---------------------------------------?-|
A#|--------------------------------------|---------------------------------------?-|
F#|--------------------------------------|---------------------------------------?-|
C#|-5--7--8-8-10-8---8-10-8---5-5-7-5--5-|-5--7--8-8-10-8---8-10-8---10-10--11-11?-|
G#|-5--7--8-8-10-8---8-10-8---5-5-7-5--5-|-5--7--8-8-10-8---8-10-8---10-10--11-11?-|
C#|-5--7--8-8----8---8----8---5-5---5--5-|-5--7--8-8----8---8----8---10-10--11-11?-|


[Chorus 3]
D#|----------------------|------------------------|
A#|----------------------|------------------------|
F#|----------------------|------------------------|
C#|--------------------3-|------------------------|
G#|-3--5--5----3-5-5-x---|-3--5--5-3-55-00-33-5-0-|
C#|----------------------|------------------------|

D#|----------------------|---------------------|
A#|----------------------|---------------------|
F#|----------------------|---------------------|
C#|--------------------3-|---------------------|
G#|-3--5--5----3-5-5-x---|-3--5--5-------------|
C#|----------------------|---------------------|

D#|----------------------|------------------------|
A#|----------------------|------------------------|
F#|----------------------|------------------------|
C#|--------------------3-|------------------------|
G#|-3--5--5----0-3-5-x---|-3--5--5-3-55-00-33-5-0-|
C#|----------------------|------------------------|

D#|----------------------|---------------------|
A#|----------------------|---------------------|
F#|----------------------|---------------------|
C#|--------------------3-|---------------------|
G#|-3--5--5----3-5-5-x---|-3--5--5-3--0-3-4----|
C#|----------------------|---------------------|


[Outro]
D#|-------|-------|-------|-------|
A#|-------|-------|-------|-------|
F#|-------|-8--8--|-------|-------|
C#|-7--7--|-7--7--|-7--7--|-7\----|
G#|-5--5--|-5--5--|-5--5--|-5\----|
C#|-0--0--|-0--0--|-0--0--|-0\----|


==== Legend ====

~ = let ring
/ = slide
+ = natural harmonic
^ = slight bend
h = hammer-on
p = pull-off
b = bend
br = bend release
??? = ungodly sound using pedals


Please rate and comment!
Добавлено: 01.03.2016
Другие материалы по этой песне:
  • Аккорды и текст

Страница создана 01.03.2016
http://primanota.ru/crobot/wizards-chords.htm
Привет, Гость.
Предлагаем пройти революционный курс по гитаре.
Подарок от PrimaNota.Ru, забирай!