PrimaNota.ru - самый крупный в мире бесплатный архив песенных текстов, аккордов, табулатур и нот


Crobot - Tap Dancin On A Tightrope - таба, видео

Регистрация Запомнить меня
Войти через:  Facebook Google Twitter Vk Yandex Mail.ru

Crobot - Tap Dancin On A Tightrope - таба, видео

Печатать
Просмотров: 87
Уроки эстрадного вокала в Санкт-Петербурге
Artist: Crobot
Song: Tap Dancin' on a Tightrope
Album: Something Supernatural
Tabbed by: gustavoaraujo999@hotmail.com
Tuning: Drop C#


[Intro]
D#|-15\\\--------------------------------------|
A#|-x------------------------------------------|
F#|x-------------------------------------------|
C#|----------10h12p10h12p10h12p10h12-------x5--|
G#|----------------------------------------x5--|
C#|----------------------------------------x5--|

D#|------------------------------------------------------|
A#|---------------------------------------------10^------|
F#|---------------------------------------------10^------|
C#|-------33-----------------------33-------\\--10^--12--|
G#|-33-55----55-33-55--------33-55----55-33-\\-----------|
C#|-------------------33-55-----------------\\-----------|

D#|--------------------------------------------|
A#|--------------------------------------------|
F#|--------------------------------------------|
C#|-------33-----------------6---665---x3--0~--|
G#|-33-55----55-33-55--------6---665---x3--0~--|
C#|-------------------33-55--6---665---x3--0~--|


[Verse]
D#|-15\\\-|----------------------------|-15\\\-|------|
A#|-------|----------------------------|-------|-////-|
F#|-------|----------------------------|-------|------|
C#|-------|----10h12p10h12p10h12p10h12-|-------|------|
G#|-------|-12-------------------------|-------|------|
C#|-------|----------------------------|-------|------|


[Pre-chorus]
D#|---------------------------|-----------------------------------|
A#|---------------------------|-----------------------------------|
F#|-x10----x7----x5h7-7--0--7-|-x10--7----------------------------|
C#|-x10----x7----x5h7-7--0--7-|-x10--7----------------------------|
G#|----------------------0----|----------8-10--8-10/12--8---------|
C#|---------------------------|-----------------------------------|

D#|-------------------------|---------------------------------------------------|
A#|-----------------------0-|---------------------------------------------------|
F#|-x10----x7----x5h7-7---0-|-12-10-12-12b13br12-10-12-x-10---10----------------|
C#|-x10----x7----x5h7-7--/0-|-12-10-12---------------------------12-10-12-------|
G#|----------------------/--|---------------------------------------------11-10-|
C#|----------------------/--|---------------------------------------------------|


[Chorus]
D#|-----------------------|-------------------------|
A#|-----------------------|-----------------0-------|
F#|-----------------------|-----------------0-------|
C#|-0----5----10----3--2--|-12----5----10--/0-3--2--|
G#|-0----5----10----3--2--|-12----5----10--/--3--2--|
C#|-0----5----10----3--2--|-12----5----10--/--3--2--|


[Interlude]
D#|------------------------------------------------------|
A#|---------------------------------------------10^------|
F#|---------------------------------------------10^------|
C#|-------33-----------------------33-------\\--10^--12--|
G#|-33-55----55-33-55--------33-55----55-33-\\-----------|
C#|-------------------33-55-----------------\\-----------|

D#|--------------------------------------------|
A#|--------------------------------------------|
F#|--------------------------------------------|
C#|-------33-----------------6---665---x3--0~--|
G#|-33-55----55-33-55--------6---665---x3--0~--|
C#|-------------------33-55--6---665---x3--0~--|


[Verse]
D#|-15\\\-|----------------------------|-15\\\-|------|
A#|-------|----------------------------|-------|-////-|
F#|-------|----------------------------|-------|------|
C#|-------|----10h12p10h12p10h12p10h12-|-------|------|
G#|-------|-12-------------------------|-------|------|
C#|-------|----------------------------|-------|------|


[Pre-chorus]
D#|---------------------------|-----------------------------------|
A#|---------------------------|-----------------------------------|
F#|-x10----x7----x5h7-7--0--7-|-x10--7----------------------------|
C#|-x10----x7----x5h7-7--0--7-|-x10--7----------------------------|
G#|----------------------0----|----------8-10--8-10/12--8---------|
C#|---------------------------|-----------------------------------|

D#|-------------------------|---------------------------------------------------|
A#|-----------------------0-|---------------------------------------------------|
F#|-x10----x7----x5h7-7---0-|-12-10-12-12b13br12-10-12-x-10---10----------------|
C#|-x10----x7----x5h7-7--/0-|-12-10-12---------------------------12-10-12-------|
G#|----------------------/--|---------------------------------------------11-10-|
C#|----------------------/--|---------------------------------------------------|


[Chorus]
D#|-----------------------|-------------------------|
A#|-----------------------|-----------------0-------|
F#|-----------------------|-----------------0-------|
C#|-0----5----10----3--2--|-12----5----10--/0-3--2--|
G#|-0----5----10----3--2--|-12----5----10--/--3--2--|
C#|-0----5----10----3--2--|-12----5----10--/--3--2--|


[Interlude]
D#|------------------------------------------------------|
A#|---------------------------------------------10^------|
F#|---------------------------------------------10^------|
C#|-------33-----------------------33-------\\--10^--12--|
G#|-33-55----55-33-55--------33-55----55-33-\\-----------|
C#|-------------------33-55-----------------\\-----------|

D#|--------------------------------------|
A#|--------------------------------------|
F#|--------------------------------------|
C#|-------33-----------------6---5-------|
G#|-33-55----55-33-55--------6---5-10br8-|
C#|-------------------33-55--6---5-------|


[Bridge]
D#|-----------------------------------------|
A#|-----------------------------------------|
F#|-----------------------------------------|
C#|-x-5-x-5-x-5b7br5-3-5-x-5-x-5b7nr5-x-3-5-| 
G#|-------------------------------------3-5-|
C#|-------------------------------------3-5-|

D#|-----------------------------------------|
A#|-----------------------------------------|
F#|-----------------------------------------|
C#|-x-5-x-5-x-5b7br5-3-5-x-5-x-5b7nr5-x-----| 
G#|-----------------------------------0-3-5-|
C#|-----------------------------------------|

D#|----------------------------------------------------|
A#|----------------------------------------------------|
F#|----------------------------------------------------|
C#|-x-5-x-5-x-5b7br5-3-5-x-5-x-5b7nr5-x-3--5----5-3--2-|
G#|-------------------------------------3--5----5-3--2-|
C#|-------------------------------------3--5----5-3--2-|

D#|-----------------------------------------|
A#|-----------------------------------------|
F#|-----------------------------------------|
C#|-x-5-x-5-x-5b7br5-3-5-x-5-x-5b7nr5-x-3-5-| 
G#|-------------------------------------3-5-|
C#|-------------------------------------3-5-|

D#|-----------------------------------------|
A#|-----------------------------------------|
F#|-----------------------------------------|
C#|-x-5-x-5-x-5b7br5-3-5-x-5-x-5b7nr5-x-----| 
G#|-----------------------------------0-3-5-|
C#|-----------------------------------------|

D#|----------------------------------------------------|
A#|----------------------------------------------------|
F#|----------------------------------------------------|
C#|-x-5-x-5-x-5b7br5-3-5-x-5-x-5b7nr5-x-3--5----5-3--2-|
G#|-------------------------------------3--5----5-3--2-|
C#|-------------------------------------3--5----5-3--2-|
 

[Interlude] - change tone
D#|----------------------------------------------------|
A#|----------------------------------------------------|
F#|----------------------------------------------------|
C#|-------33-----------------------33-----------0--0---|
G#|-33-55----55-33-55--------33-55----55-33-55--0--0---|
C#|-------------------33-55---------------------0--0---|


{Chorus]
D#|-----------------------|-------------------------|
A#|-----------------------|-----------------0-------|
F#|-----------------------|-----------------0-------|
C#|-0----5----10----3--2--|-12----5----10--/0-3--2--|
G#|-0----5----10----3--2--|-12----5----10--/--3--2--|
C#|-0----5----10----3--2--|-12----5----10--/--3--2--|


[Chorus 2]
D#|-------------------------------------------------------|
A#|-------------------------------------------------------|
F#|---------------------------------------------10^-------|
C#|-------3^-----------------------3^-------\\--------12--|
G#|-3--5-----5--3--5---------3--5-----5--3--\\------------|
C#|-------------------3--5------------------\\------------|
 
D#|-------------------------------------|---------|---------|------------------|
A#|-------------------------------------|---------|---------|------------------|
F#|-------------------------------------|---------|---------|------------------|
C#|-------33-----------------6---665--3-|-6--665--|-6--665--|-6---665----------|
G#|-33-55----55-33-55--------6---665--3-|-6--665--|-6--665--|-6---665----------|
C#|-------------------33-55--6---665--3-|-6--665--|-6--665--|-6---665-555-333--|


[Outro]
D#|--------------------------------------------|
A#|--------------------------------------------|
F#|--------------------------------------------|
C#|-0----0----0----0------0----0----0----0-----|
G#|-0----0----0----0-3h5--0----0----0----0-3h5-|
C#|-0----0----0----0------0----0----0----0-----|

D#|--------------------------------------------------|
A#|----------------------------0---------------------|
F#|----------------------------0--12b13-12-10-12-10b-|
C#|-0----0----0----0------0---/0---------------------|
G#|-0----0----0----0-3h5--0---/----------------------|
C#|-0----0----0----0------0---/----------------------|

D#|--------------------------------------------|
A#|--------------------------------------------|
F#|--------------------------------------------|
C#|-0----0----0----0------0----0----0----0-----|
G#|-0----0----0----0-3h5--0----0----0----0-3h5-|
C#|-0----0----0----0------0----0----0----0-----|

D#|--------------------------------------------|----------------------|
A#|--------------------------------------------|----------------------|
F#|-----------------------------------------5--|----------------------|
C#|-0----0----0----0------0----0----0----0--5--|---increasing noise---|
G#|-0----0----0----0-3h5--0----0----0----0--3--|----------------------|
C#|-0----0----0----0------0----0----0----0-----|----------------------|


[Actual Outro]
D#|--------------------------------------------|
A#|--------------------------------------------|
F#|--------------------------------------------|
C#|-------33----------12\----------------------|
G#|-33-55----55-33-55-12\----------------------|
C#|-------------------12\----------------------|


==== Legend ====
~ = let ring
/ = slide
* = natural harmonic
+ = artificial harmonic
x = muted note
h = hammer-on
p = pull-off
^ = slight bend
b = bend
br = bend release
??? = ungodly sound using pedals


Please rate and comment!
Добавлено: 01.03.2016
Вам также может быть интересно:
Другие материалы по этой песне:
  • Аккорды и текст

Страница создана 01.03.2016
http://primanota.ru/crobot/tap-dancin-on-a-tightrope-chords.htm
Привет, Гость.
Предлагаем пройти революционный курс по гитаре.
Подарок от PrimaNota.Ru, забирай!