PrimaNota.ru - самый крупный в мире бесплатный архив песенных текстов, аккордов, табулатур и нот


Crobot - Skull Of Geronimo - таба, видео

Регистрация Запомнить меня
Войти через:  Facebook Google Twitter Vk Yandex Mail.ru

Crobot - Skull Of Geronimo - таба, видео

Печатать
Просмотров: 55
Intro

Eb|---------------------------------------------------------------------||
Bb|---------------------------------------------------------------------||
Gb|---------------------------------------------------------------------||
Db|----3-------------------3---------xxxxxx---3--------------------0----||
Ab|-5----5p3h5-5----3h5-5----5p3h5-5-xxxxxx-----5p3h5-5----3h5-----0----||
Db|--0-----------3h5-----0-----------xxxxxx-0-----------3h5----5-3-0----||

Pre-Verse
Eb|-------------------------------------------------------------------||
Bb|-------------------------------------------------------------------||
Gb|-14---17-11s12s11----------------------------10b---------10--------||
Db|-----------------------10h12------10h12----------12p10h12--12------||
Ab|-12---15--9s10s9--10h12------10h12------10h12----------------------||
Db|-------------------------------------------------------------------||

Verse
Eb|----------------------------------------------------------------------------||
Bb|----------------------------------------------------------------------------||
Gb|-14---17--11s12s11--12s14--11s12--11s12-12s14-14s12-12s11-11s12s11-11s12s11-||
Db|-------------------------xx-----xx------------------------------------------||
Ab|-12---15---9s10s9---10s12xx-9s10xx-9s10-10s12-12s10-10s9---9s10s9---9s10s9--||
Db|-------------------------xx-----xx------------------------------------------||

Eb|-------------------------------------------------------------------||
Bb|-------------------------------------------------------------------||
Gb|-14---17-11s12s11----------------------------10b---------10--------||
Db|-----------------------10h12------10h12----------12p10h12--12------||
Ab|-12---15--9s10s9--10h12------10h12------10h12----------------------||
Db|-------------------------------------------------------------------||

Eb|----------------------------------------------------------------------------||
Bb|----------------------------------------------------------------------------||
Gb|-14---17--11s12s11--12s14--11s12--11s12-12s14-14s12-12s11-11s12s11-11s12s11-||
Db|-------------------------xx-----xx------------------------------------------||
Ab|-12---15---9s10s9---10s12xx-9s10xx-9s10-10s12-12s10-10s9---9s10s9---9s10s9--||
Db|-------------------------xx-----xx------------------------------------------||

Eb|-------------------------------------------------------------------------||
Bb|-------------------------------------------------------------------------||
Gb|-14---17-11s12s11--------------------------------------------------------||
Db|-----------------------10h12------10h12------10h12------10h12------10h12-||
Ab|-12---15--9s10s9--10h12------10h12------10h12------10h12------10h12------||
Db|-------------------------------------------------------------------------||

Pre-Chorus
Eb|-------------------------------------------------------------------||
Bb|-------------------------------------------------------------------||
Gb|-9---------------------------------------10b-----------------------||
Db|----10101010101010101010101010101010-12-----12\--------------------||
Ab|-7--8-8-8-8-8-8-8-8-8-8-8-8-8-8-8-8--10----------------------------||
Db|-------------------------------------------------------------------||

Chorus
Eb|---------------------------------------------------------------------------------------||
Bb|-------------------------------------------------------------------------12------------||
Gb|-------------------------------------------------------------------------12-12p10------||
Db|----3-------------------3---------xxxxxx---3-------------------3-----------------12p10-||
Ab|-5----5p3h5-5----3h5-5----5p3h5-5-xxxxxx-----5p3h5-5----3h5-5----5p3h5-5---------------||
Db|--0-----------3h5-----0-----------xxxxxx-0-----------3h5-----0-------------------------||

Eb|---------------------------------------------------------------------||
Bb|---------------------------------------------------------------------||
Gb|---------------------------------------------------------------------||
Db|----3-------------------3---------xxxxxx---3--------------------0----||
Ab|-5----5p3h5-5----3h5-5----5p3h5-5-xxxxxx-----5p3h5-5----3h5-----0----||
Db|--0-----------3h5-----0-----------xxxxxx-0-----------3h5----5-3-0----||

Bridge
Eb|------------------------------------------------------------------------------||
Bb|------------------------------------------------------------------------------||
Gb|------------------------------------------------------------------------------||
Db|-----------3------------------------3------------------3----------------------||
Ab|-5p3h5-3----5-5p3---------------------5p3----5p3h5-3----5-5p3-----------------||
Db|--------50-------5p3-5p3h5s6s5p3p0-0-----5p3--------50-------5p3-5p3h5s6s5p3p0||

Bridge Ending
Eb|------------||
Bb|------------||
Gb|------------||
Db|-0-3-5-6-10-||
Ab|-0-3-5-6-10-||
Db|-0-3-5-6-10-||

Bridge Alternate Ending
Eb|-------------||
Bb|-------------||
Gb|-------------||
Db|-0-3-5-6-5-3-||
Ab|-0-3-5-6-5-3-||
Db|-0-3-5-6-5-3-||

Bridge Second Alternate Ending
Eb|-------------------------------------------------------------------||
Bb|-------------------------------------------------------------------||
Gb|-------------------------------------------------------------------||
Db|-0-3-5-6-5-3-0-3-5-6-10--0-----------------------------------------||
Ab|-0-3-5-6-5-3-0-3-5-6-10--0-----------------------------------------||
Db|-0-3-5-6-5-3-0-3-5-6-10--0-----------------------------------------||

Order:
Intro
Pre-verse
Verse
Pre-chorus
Chorus
Pre-verse
Verse
Pre-chorus
Chorus
Bridge
Chorus
Bridge w/ 1st alternate ending
Bridge w 2nd alternate ending

Добавлено: 01.03.2016
Другие материалы по этой песне:
  • Аккорды и текст

Страница создана 01.03.2016
http://primanota.ru/crobot/skull-of-geronimo-chords.htm
Привет, Гость.
Предлагаем пройти революционный курс по гитаре.
Подарок от PrimaNota.Ru, забирай!