PrimaNota.ru - самый крупный в мире бесплатный архив песенных текстов, аккордов, табулатур и нот


Crobot - Nowhere To Hide - таба, видео

Регистрация Запомнить меня
Войти через:  Facebook Google Twitter Vk Yandex Mail.ru

Crobot - Nowhere To Hide - таба, видео

Печатать
Просмотров: 81
Artist: Crobot
Song: Nowhere to Hide
Album: Something Supernatural
Tabbed by: gustavoaraujo999@hotmail.com
Tuning: Half-step down

**Half of the solo is missing but the rest is here.


[Intro]
D#|-x-x-------------|
A#|-x-x-------------|
F#|-x-x--7^---------|
C#|-x-x-----9-------|
G#|-x-x--------5^---|
D#|-x-x-----------7-|


[Verse]
D#|---------------------------------------------|
A#|---------------------------------------------|
F#|---------------------9b11br9-7---------------|
C#|----------x-x---xxx------------9--x-x---xxx--|
G#|-----5----x-x---xxx---------------x-x---xxx--|
D#|-5/7---7--x-x---xxx---------------x-x---xxx--|

D#|----------------------------------------------------------|
A#|----------------------------------------------------------|
F#|-----7----------------9b11br9-7----------7----------------|
C#|-7/9---9--x-x---xxx-------------9----9-7---9---9-7-9---9--|
G#|----------x-x---xxx---------------------------------------|
D#|----------x-x---xxx---------------------------------------|

D#|---------------------------------------------|
A#|---------------------------------------------|
F#|---------------------9b11br9-7---------------|
C#|-----7-9\-x-x---xxx------------9--x-x---xxx--|
G#|-7-9------x-x---xxx---------------x-x---xxx--|
D#|----------x-x---xxx---------------x-x---xxx--|

D#|---------------------------------------------------|
A#|---------------------------------------------------|
F#|-----7---------------9b11br9-7---------------------|
C#|-7/9---9-----------------------9---997-99-9-7-99-9-|
G#|---------------------------------------------------|
D#|---------x-x---x-x---------------------------------|

                        
[Pre-chorus]
D#|-2222-|------|----------------------------------|-2222-|---------------|
A#|-3333-|------|----------------------------------|-3333-|--------0------|
F#|-2222-|-2222-|----------------------------------|-2222-|-2222---0------|
C#|-0000-|-2222-|------------------9-9-9-7-9-9-9-7-|-0000-|-2222--/0------|
G#|------|-0000-|----------------------------------|------|-0000--/-------|
D#|------|------|-7-7-7-5--7-7-7-5-----------------|------|-------/-------|


[Chorus]
D#|-------------------------|--------------------|------------------------|
A#|-------------------------|----------------5---|------------------0-----|
F#|---------------------7---|-7777-------7-------|-9999------9------0-----|
C#|-------------4/7-9-----9-|-7777---4/7---7---7-|-9999------9-----/0-----|
G#|-------------------9-----|-5555---------------|-7777-9/11-------/------|
D#|-777---7\----------------|--------------------|-----------------/------|

D#|---------------------------|
A#|---------------------------|
F#|----------------------7^---|
C#|-------------------------9-|
G#|--------5------------------|
D#|-7--7-----7---7-5-7--------|

D#|-------------------------|--------------------|------------------------|
A#|-------------------------|----------------5---|------------------0-----|
F#|---------------------7---|-7777-------7-------|-9999------9------0-----|
C#|-------------4/7-9-----9-|-7777---4/7---7---7-|-9999------9-----/0-----|
G#|-------------------9-----|-5555---------------|-7777-9/11-------/------|
D#|-777-5-7\----------------|--------------------|-----------------/------|

D#|-3333-5555-----------------|
A#|-3333-5555-----------------|
F#|-4444-6666-----------------|
C#|-5555-9999-----------------|
G#|-5555-9999-----------------|
D#|-3333-7777-----------------|
 

[Interlude]
D#|-x-x-------------|
A#|-x-x-------------|
F#|-x-x--7^---------|
C#|-x-x-----9-------|
G#|-x-x--------5^---|
D#|-x-x-----------7-|


[Verse]
D#|---------------------------------------------|
A#|---------------------------------------------|
F#|---------------------9b11br9-7---------------|
C#|----------x-x---xxx------------9--x-x---xxx--|
G#|-----5----x-x---xxx---------------x-x---xxx--|
D#|-5/7---7--x-x---xxx---------------x-x---xxx--|

D#|----------------------------------------------------------|
A#|----------------------------------------------------------|
F#|-----7----------------9b11br9-7----------7----------------|
C#|-7/9---9--x-x---xxx-------------9----9-7---9---9-7-9---9--|
G#|----------x-x---xxx---------------------------------------|
D#|----------x-x---xxx---------------------------------------|

D#|---------------------------------------------|
A#|---------------------------------------------|
F#|---------------------9b11br9-7---------------|
C#|-----7-9\-x-x---xxx------------9--x-x---xxx--|
G#|-7-9------x-x---xxx---------------x-x---xxx--|
D#|----------x-x---xxx---------------x-x---xxx--|

D#|---------------------------------------------------|
A#|---------------------------------------------------|
F#|-----7---------------9b11br9-7---------------------|
C#|-7/9---9-----------------------9---997-99-9-7-99-9-|
G#|---------------------------------------------------|
D#|---------x-x---x-x---------------------------------|

                        
[Pre-chorus]
D#|-2222-|------|----------------------------------|-2222-|---------------|
A#|-3333-|------|----------------------------------|-3333-|--------0------|
F#|-2222-|-2222-|----------------------------------|-2222-|-2222---0------|
C#|-0000-|-2222-|------------------9-9-9-7-9-9-9-7-|-0000-|-2222--/0------|
G#|------|-0000-|----------------------------------|------|-0000--/-------|
D#|------|------|-7-7-7-5--7-7-7-5-----------------|------|-------/-------|


[Chorus]
D#|-------------------------|--------------------|------------------------|
A#|-------------------------|----------------5---|------------------0-----|
F#|---------------------7---|-7777-------7-------|-9999------9------0-----|
C#|-------------4/7-9-----9-|-7777---4/7---7---7-|-9999------9-----/0-----|
G#|-------------------9-----|-5555---------------|-7777-9/11-------/------|
D#|-777---7\----------------|--------------------|-----------------/------|

D#|---------------------------|
A#|---------------------------|
F#|----------------------7^---|
C#|-------------------------9-|
G#|--------5------------------|
D#|-7--7-----7---7-5-7--------|

D#|-------------------------|--------------------|------------------------|
A#|-------------------------|----------------5---|------------------0-----|
F#|---------------------7---|-7777-------7-------|-9999------9------0-----|
C#|-------------4/7-9-----9-|-7777---4/7---7---7-|-9999------9-----/0-----|
G#|-------------------9-----|-5555---------------|-7777-9/11-------/------|
D#|-777-5-7\----------------|--------------------|-----------------/------|

D#|-3333-5555-----------------|
A#|-3333-5555-----------------|
F#|-4444-6666-----------------|
C#|-5555-9999-----------------|
G#|-5555-9999-----------------|
D#|-3333-7777-----------------|
 

[Bridge]
D#|-------------------------------|---------------------------------------|
A#|-------------------------------|---------------------------------------|
F#|---------7----------7----------|---------7----------7---------7---7----|
C#|-----7-9--------7-9--------7-9-|-----7-9--------7-9-------7-9-------9--|
G#|-7-9--------7-9--------7-9-----|-7-9--------7-9-------7-9--------------|
D#|-------------------------------|---------------------------------------|


[Solo]
D#|------------------------------|----------------------------------------|
A#|------------------------------|---10-9-10--9h10p9------9b10------------|
F#|-9b11br9-7-9-7--------7-------|--9----------------11-9------9h11p9-7-9-7
C#|----------------9-7-9---x-x-9-|-7--------------------------------------|
G#|------------------------------|----------------------------------------|
D#|------------------------------|----------------------------------------|

D#|-12-13-14---------------------------------------12b14------------------|
A#|-----------------------------------------------------------------------|
F#|-----------------------------------------------------------------------|
C#|-----------------------------------------------------------------------|
G#|-----------------------------------------------------------------------|
D#|-----------------------------------------------------------------------|

D#|-----------------------------------------------------------------------|
A#|-12-10-----------------------------------------------------------------|
F#|-------11-10-9-7--9-9b11br9-7-9-7--------------------------------------|
C#|-----------------------------------------------------------------------|
G#|-----------------------------------------------------------------------|
D#|-----------------------------------------------------------------------|

D#|-----------------------------------------------------------------------|
A#|-----------------------------------------------------------------------|
F#|-----------------------------------------------------------------------|
C#|-----------------------------------------------------------------------|
G#|-----------------------------------------------------------------------|
D#|-----------------------------------------------------------------------|

D#|-------10----12-----------------xx-7h9p7-------xx-10h12p10----15b17-17br
A#|----12----15-15b17-xx-15b17----xx------------xx------------------------|
F#|-14---------------------------xx-----------xx--------------------------|
C#|-----------------------------xx----------xx----------------------------|
G#|-----------------------------------------------------------------------|
D#|-----------------------------------------------------------------------|

D#|------------10--------------------|-----------------------------------------|
A#|------10-------12-----10----10-12-|-10h12p10--------------------------------|
F#|-9/11----11-------11-----11-------|----------11-10-9-7----------------------|
C#|----------------------------------|--------------------9-7--7h9p7-----------|
G#|----------------------------------|-------------------------------9-8-7-5---|
D#|----------------------------------|---------------------------------------7-|


[Pre-chorus]
D#|-2222-|------|----------------------------------|-2222-|---------------|
A#|-3333-|------|----------------------------------|-3333-|---------------|
F#|-2222-|-2222-|----------------------------------|-2222-|-2222----------|
C#|-0000-|-2222-|------------------9-9-9-7-9-9-9-7-|-0000-|-2222----------|
G#|------|-0000-|----------------------------------|------|-0000----------|
D#|------|------|-7-7-7-5--7-7-7-5-----------------|------|---------------|


[Chorus]
D#|-------------------------|--------------------|------------------------|
A#|-------------------------|----------------5---|------------------0-----|
F#|---------------------7---|-7777-------7-------|-9999------9------0-----|
C#|-------------4/7-9-----9-|-7777---4/7---7---7-|-9999------9-----/0-----|
G#|-------------------9-----|-5555---------------|-7777-9/11-------/------|
D#|-777---7\----------------|--------------------|-----------------/------|

D#|---------------------------|
A#|---------------------------|
F#|----------------------7^---|
C#|-------------------------9-|
G#|--------5------------------|
D#|-7--7-----7---7-5-7--------|

D#|-------------------------|--------------------|------------------------|
A#|-------------------------|----------------5---|------------------0-----|
F#|---------------------7---|-7777-------7-------|-9999------9------0-----|
C#|-------------4/7-9-----9-|-7777---4/7---7---7-|-9999------9-----/0-----|
G#|-------------------9-----|-5555---------------|-7777-9/11-------/------|
D#|-777-5-7\----------------|--------------------|-----------------/------|

D#|-3333-5555-----------------|
A#|-3333-5555-----------------|
F#|-4444-6666-----------------|
C#|-5555-9999-----------------|
G#|-5555-9999-----------------|
D#|-3333-7777-----------------|


[Outro 1]
D#|-3333-5555-----------------|
A#|-3333-5555-----------------|
F#|-4444-6666-----------------|
C#|-5555-9999-----------------|
G#|-5555-9999-----------------|

D#|-3333-5555-----------------|
A#|-3333-5555-----------------|
F#|-4444-6666-----------------|
C#|-5555-9999-----------------|
G#|-5555-9999-----------------|


[Outro 2]
D#|-------------------------------|---------------------------------------|
A#|-------------------------------|---------------------------------------|
F#|---------7----------7----------|---------7----------7---------7---7----|
C#|-----7-9--------7-9--------7-9-|-----7-9--------7-9-------7-9-------9--|
G#|-7-9--------7-9--------7-9-----|-7-9--------7-9-------7-9--------------|
D#|-------------------------------|---------------------------------------|


==== Legend ====
~ = let ring
/ = slide
* = natural harmonic
+ = artificial harmonic
x = muted note
h = hammer-on
p = pull-off
^ = slight bend
b = bend
br = bend release
??? = ungodly sound using pedals


Please rate and comment!

Добавлено: 01.03.2016
Другие материалы по этой песне:
  • Аккорды и текст

Страница создана 01.03.2016
http://primanota.ru/crobot/nowhere-to-hide-chords.htm
Привет, Гость.
Предлагаем пройти революционный курс по гитаре.
Подарок от PrimaNota.Ru, забирай!