PrimaNota.ru - самый крупный в мире бесплатный архив песенных текстов, аккордов, табулатур и нот


Crobot - Night Of The Sacrifice - таба, видео

Регистрация Запомнить меня
Войти через:  Facebook Google Twitter Vk Yandex Mail.ru

Crobot - Night Of The Sacrifice - таба, видео

Печатать
Просмотров: 87
Уроки эстрадного вокала в Санкт-Петербурге
Artist: Crobot
Song: Night of the Sacrifice
Album: Something Supernatural
Tabbed by: gustavoaraujo999@hotmail.com
Tuning: Half-step down


[Intro]
D#|-0------------------------------|----------------------------------|
A#|-0------------------------------|----------------------------------|
F#|-0------------------------------|----------------------------------|
C#|-0------------------------x-x-x-|----------------------------------|
G#|-0---------3--------------x-x-x-|---------3----------5b7br5-3------|
D#|-0-5-3-5-3----5-3-5-3-5---x-x-x-|-5-3-5-3----5-3-5-3----------5-3--|

D#|------------------------------|----------------------------------|
A#|------------------------------|----------------------------------|
F#|------------------------------|----------------------------------|
C#|------------------------------|-----------------5----------------|
G#|---------3--------------------|---------3-------5----------------|
D#|-5-3-5-3----5-3-5-3-5--5b7br5-|-5-3-5-3----5-3--3----------------|


[Verse]
D#|-----------------------------------------------------------|
A#|-----------------------------------------------------------|
F#|--------5\----------7\----------5\-------------------------|
C#|--------5\----------7\----------5\---------5h7p5-----------|
G#|-------------------------------------------------7-6-5-----|
D#|-0-3-5-------0-3-5-------0-3-5--------3/5--------------8---|

D#|-----------------------------------------------------------|
A#|-----------------------------------------------------------|
F#|---------------------------------------------------x7--x5--|
C#|--------xxx---------xxx---------xxx----------------x7--x5--|
G#|--------xxx---------xxx---------xxx------------------------|
D#|-0-3-5--xxx--0-3-5--xxx--0-3-5--xxx-----12\---3/-----------|

D#|------------------------------------------------------------------|
A#|------------------------------------------------------------------|
F#|------------------------------------------------------------------|
C#|--------xxx---------xxx---------xxx---------------5h7p5-----------|
G#|--------xxx---------xxx---------xxx---------------------7-6-5-----|
D#|-0-3-5--xxx--0-3-5--xxx--0-3-5--xxx-----12\---3/--------------8-5-|


[Pre-chorus]
D#|-2---14--------------|
A#|-3---15-----------0--|
F#|-2---14-----------0--|
C#|-0---------------/0--|
G#|-----------------/---|
D#|---------12\-----/---|
 

[Chorus]
D#|------------------------------|----------------------------------|
A#|----------------------------0-|----------------------------------|
F#|----------------------------0-|----------------------------------|
C#|------------------------x-x-0-|----------------------------------|
G#|---------3--------------x-x---|---------3----------5b7br5-3------|
D#|-5-3-5-3----5-3-5-3-5---x-x---|-5-3-5-3----5-3-5-3----------5-3--|

D#|------------------------------|----------------------------------|
A#|------------------------------|----------------------0-----------|
F#|------------------------------|----------------------0-----------|
C#|------------------------------|-----------------5---/0-----------|
G#|---------3--------------------|---------3-------5---/------------|
D#|-5-3-5-3----5-3-5-3-5--5b7br5-|-5-3-5-3----5-3--3---/------------|


[Verse]
D#|-----------------------------------------------------------|
A#|-----------------------------------------------------------|
F#|--------5\----------7\----------5\-------------------------|
C#|--------5\----------7\----------5\---------5h7p5-----------|
G#|-------------------------------------------------7-6-5-----|
D#|-0-3-5-------0-3-5-------0-3-5--------3/5--------------8---|

D#|-----------------------------------------------------------|
A#|-----------------------------------------------------------|
F#|---------------------------------------------------x7--x5--|
C#|--------xxx---------xxx---------xxx----------------x7--x5--|
G#|--------xxx---------xxx---------xxx------------------------|
D#|-0-3-5--xxx--0-3-5--xxx--0-3-5--xxx-----12\---3/-----------|

D#|------------------------------------------------------------------|
A#|------------------------------------------------------------------|
F#|------------------------------------------------------------------|
C#|--------xxx---------xxx---------xxx---------------5h7p5-----------|
G#|--------xxx---------xxx---------xxx---------------------7-6-5-----|
D#|-0-3-5--xxx--0-3-5--xxx--0-3-5--xxx-----12\---3/--------------8-5-|


[Pre-chorus]
D#|-2---14--------------|
A#|-3---15-----------0--|
F#|-2---14-----------0--|
C#|-0---------------/0--|
G#|-----------------/---|
D#|---------12\-----/---|
 

[Chorus]
D#|------------------------------|----------------------------------|
A#|----------------------------0-|----------------------------------|
F#|----------------------------0-|----------------------------------|
C#|------------------------x-x-0-|----------------------------------|
G#|---------3--------------x-x---|---------3----------5b7br5-3------|
D#|-5-3-5-3----5-3-5-3-5---x-x---|-5-3-5-3----5-3-5-3----------5-3--|

D#|------------------------------|----------------------------------|
A#|------------------------------|----------------------0-----------|
F#|------------------------------|----------------------0-----------|
C#|------------------------------|-----------------5---/0-----------|
G#|---------3--------------------|---------3-------5---/------------|
D#|-5-3-5-3----5-3-5-3-5--5b7br5-|-5-3-5-3----5-3--3---/------------|


[Solo]
D#|------------------------------|----------------------------------------|
A#|------------------------------|--------------------5---7b8-------------|
F#|------------------------------|--------------------5--------5----------|
C#|------------------------------|----------------5---5-7-5---------------|
G#|---------3---------5b7br5-3---|---------5--5/7---7---------------------|
D#|-5-3-5-3---5-3-5-3----------5-|-5-3-5/8--------------------------------|

D#|-----------------------------------------------------------------------|
A#|-------------------------------7b8---------8b10------------------------|
F#|---5-7-7b8-7b8br7-5----------------7-5----------7-5----7b8-7-5-7-5-----|
C#|--7-----------------7---5-7------------7------------7------------------|
G#|-7--------------------7------------------------------------------------|
D#|-----------------------------------------------------------------------|

D#|-12-14----12h14p12------12-14----12h14p12-----12-14-14b17--------------|
A#|-------13----------13---------13----------13---------------------------|
F#|------------------------------------------------------------?????------|
C#|-----------------------------------------------------------------------|
G#|-----------------------------------------------------------------------|
D#|-----------------------------------------------------------------------|

D#|---------------------------------------------------|
A#|-3------------7------------------------------------|
F#|-2------------7------7-----------------------------|
C#|-0--------5/7-7--------7---------------------------|
G#|-----------------5/7-------------------------------|
D#|--------------------------------00000000-1111-3333-|


[Chorus 3]
D#|------------------------------|----------------------------------|
A#|----------------------------0-|----------------------------------|
F#|----------------------------0-|----------------------------------|
C#|------------------------x-x-0-|----------------------------------|
G#|---------3--------------x-x---|---------3----------5b7br5-3------|
D#|-5-3-5-3----5-3-5-3-5---x-x---|-5-3-5-3----5-3-5-3----------5-3--|

D#|------------------------------|----------------------------------|
A#|------------------------------|----------------------------------|
F#|------------------------------|----------------------------------|
C#|------------------------------|----------------------------------|
G#|---------3--------------------|---------3------------------------|
D#|-5-3-5-3----5-3-5-3-5--5b7br5-|-5-3-5-3----5-3-------------------|


[Outro]
D#|---------------------------------------------------|
A#|-3------------7------------------------------------|
F#|-2------------7------7-----------------------------|
C#|-0--------5/7-7--------7---------------------------|
G#|-----------------5/7-------------------------------|
D#|--------------------------------00000000-1111-3333-|

D#|-----------------|---------------|-----------------|----------------|
A#|-----------------|---------------|-----------------|----------------|
F#|-----------------|---------------|-----------5-----|----------------|
C#|-----------------|---------------|-7-5-7-5-7---7-5-|-7\-------------|
G#|-----------3-----|-----------3---|-----------------|----------------|
D#|-5-3-5-3-5---5-3-|-5-3-5-3-5---5-|-----------------|----------------|



==== Legend ====
~ = let ring
/ = slide
* = natural harmonic
+ = artificial harmonic
x = muted note
h = hammer-on
p = pull-off
^ = slight bend
b = bend
br = bend release
??? = ungodly sound using pedals

Please rate and comment!

Добавлено: 01.03.2016
Другие материалы по этой песне:
  • Аккорды и текст

Страница создана 01.03.2016
http://primanota.ru/crobot/night-of-sacrifice-chords.htm
Привет, Гость.
Предлагаем пройти революционный курс по гитаре.
Подарок от PrimaNota.Ru, забирай!